Tom: A
		
(intro base) E  B  A  E B7

(intro solo)

E |-------------------------------------------------------
B |-------------------------------------------------------
G |-------------------------------------------------------
D |-----------------------------------2-1-----------------
A |-2-2~4-2--------2-2~4-2---2-------2---2-2/4-2-0--------
E |---------0-4------------4---4-2------------------------



E |-------------------------------------------------------
B |-------------------------------------------------------
G |-------------------------------------------------------
D |---------1-2-------------------------------------------
A |-2-4-2-4-----------------------------------------------
E |--------------4-5-7------------------------------------


E
Eu tive um amor
            B
Amor tão bonito
              A
Daqueles que matam
               E     B7
Com sabor de saudade
E
Meu ex-amor
                        B
Tem coisas que a gente não esquece
                A
Mas você não merece
       E    E7
Tanta dor
            A
Foi bonito demais
             E
Mas eu estou sozinho
             A
Foi rico de amor
  B             E
Hoje estou tão só

(intro base) E  B  A  E B7


E |-------------------------------------------------------
B |-------------------------------------------------------
G |-------------------------------------------------------
D |-----------------------------------2-1-----------------
A |-2-2~4-2--------2-2~4-2---2-------2---2-2/4-2-0--------
E |---------0-4------------4---4-2------------------------



E |-------------------------------------------------------
B |-------------------------------------------------------
G |-------------------------------------------------------
D |---------1-2---1h2h1-0---------------------------------
A |-2-4-2-4-----------------------------------------------
E |-------------------------------------------------------


            A
Foi bonito demais
             E
Mas eu estou sozinho
             A   B
Foi rico de amor
               E
Hoje estou tão só


E |-----------
B |-----------
G |-----------
D |-----------
A |-0~2~0-----
E |-----------


   E
Meu Amor me espere vou logo chegar

Vai ligando o chuveiro

Prepare o jantar
                A
Poe o vinho no gelo
                  E
Hoje eu quero ti amar
   E
O baton que eu gosto pra eu ti beijar

Use aquele perfume pra mi enfeiticar
                A
Uma flor nos cabelos
                  E
Hoje eu quero ti amar
 C#m              B
Deixe a porta aberta
           A
A luz bem acesa e
          G#                    C#m
Avise a trixteza que hoje naum da
                    A
Nem que o mundo se acabe
                 E
Hoje e quero ti amar
                   A
Agente ja nao faz amor
B               E
Como manda a paixao
C#m                     A
Se nenhum dos dois mais briga
                  B                   E
O amor com tanta briga vai fugir do coracao
                   A
Agente ja nao faz amor
B              E
Com desejos no olhar
C#m                 A
Hoje eu vo pra casa cedo
                  B
Pra mata o nosso medo
                  E
Hoje eu quero ti amar

   E
Meu Amor me espere vou logo chegarrrrr
Vai ligando o chuveiro
Prepare o jantarrrrr
163.655 exibições

Comentários 0

Composição: Reginaldo Sodré / Amado Batista
Esse não é o compositor? Avise-nos.
Contribuição: carnerinho Correções: matiuzi , victor e mais 2 »
Exibir acordes »
publicidade
fechar