Tom: C#
		
Intro.: D#  F ~ F#  F  D#  C#  G#


E |--------------------------------
B |--------------------------------
G |-8-8-8-8/11--10\8\6--6-6--8-----
D |--------------------------------
A |-6-6-6-6/9----8\6\4--4-4--6-----
E |--------------------------------


Refrão:
               C#               G#
Eu sei que é amor e sinto pra valer
                  A#m              G#
Mais por você eu dou a cara pra bater
                  C#                G#
Se eu te peço um beijo mata o meu desejo
                F#               G#
E tira o meu sufoco com o seu prazer

Solo.: C#  G#  A#m  F#



              C#                  G#
E |-x--x--x----x----x--x--x--x----x--x--x----x----x--x--x--x------
B |-x--x--x----x----x--x--x--x----x--x--x----x----x--x--x--x------
G |-10-10-10---10---10-11-10-8----10-10-10---10---10-11-10-6------
D |-x--x--x----x----x--x--x--x----x--x--x----x----x--x--x--x------
A |-8--8--8----8----8--9--8--6----8--8--8----8----8--9--8--4------
E |-x--x--x----x----x--x--x--x----x--x--x----x----x--x--x--x------




E |-------------------------4-----------------2-2-4---------------
B |-7-7-7-6-4/6--6-6--6-7-6-----4-7-6-4--2-2--2-2-4---------------
G |---------------------------------------------------------------
D |---------------------------------------------------------------
A |---------------------------------------------------------------
E |---------------------------------------------------------------


            C#                  G#
Como que eu faço pra tirar da cabeça
          A#m                    F#
Sendo que você não sai do meu coração
               C#                   G#
Sempre que me pede pra que eu te esqueça
           A#m              F#
Fico no sufoco com essa paixão

D#m            G#                 C#
Eu não sou brinquedo, mas você me pisa
              F            Bbm
E sem querer judia do meu coração
             F#
E faz minha cabeça,
             D#m             G#
Sempre que decido te dizer um não

Refrão (2x)   Como que eu faço.....  Refrão (2x)    A

(Sobe meio tom)
               D                 A
Eu sei que é amor e sinto pra valer
                  Bm               A
Pois por você eu dou a cara pra bater
                  D                  A
Se eu te peço um beijo mata o meu desejo
                G                 A        G     A
E tira o meu sufoco com o seu prazer

                  D                  A
Se eu te peço um beijo mata o meu desejo
                G    A    D
E tira o meu sufoco

Comentários 2

  • Paulo Ricardo Paulo Ricardo: Postado em 06/02/2011 13:08

    essa e boa de mais

    • ghs_ ghs_: Postado em 20/06/2011 15:27

      luan santana q escreveru né '-

Composição: Luan Santana
Esse não é o compositor? Avise-nos.
Contribuição: Nhock Correções: geovanni.. , Amilton (M|RtO) e mais 3 »
Exibir acordes »
publicidade
fechar