Enquanto Espero

João Bosco

 João Bosco
Tom: D
		
Bm                       G7+ G/A     Bb°                       Bm
Enquanto espero acontecer ,    enquanto espero ver no cais
C#7                   F#7+  G#m             C#7        F#7 F#/E D C#7 Bm  
Vou derramando sem querer            a febre dos meus ais
                 Bb°                            Bm
Há muito tempo amor  que trago dor dentro do peito
                  Em        A7                 D
Há muito tempo a cor  da solidão tingiu-me o leito
                 G A/G                    F#m
Há tanto tempo assim      só eu dentro de mim
      B7        Em  A7            D7+
A procurar por nós  e apenas uma voz
                  C#7                         F#7 F#/E D C#7 Bm 
Responde, estão agora o vazio e a saudade a sós
                 Bb°                          Bm
Há muito tempo amor  que eu te sufoco em pensamento
                    Em A7                         D7+
Mas quando a noite cai  traz tua imagem como um vento
                 G7+ A/G                F#m7 B7
Faz tanto frio aqui     só eu dentro de mim
                Em A7                D
A procurar por nós     e apenas uma voz
                  C#7                F#7       F#/E D C#7 Bm
Responde, estão agora o vazio e a saudade a sós
                      Em      F#7                     Bm  Bm7+ Bm7 Bm6
   Navego um mar de fado azul       angústia de um bolero
                       Em                      C#m7/5-
   Versado em sombras meia luz soluço no meu canto
         F#5+              Bm
   Uma canção enquanto espero  



|----------------------------------------------------|
|----------------------------------------------------|
|----------------------------2--------4-6-7-6-4------|  
|----------------------2-4-5---5-4--------------4-5--| 
|---2-4-5-4-2------2-5-------------------------------|
|-5-----------2-3------------------------------------|




|-------------------------------------5-7-5---7-------|
|-------------------------------7-7-8-------8---------|
|---4-------------------------------------------------|  
|-7---7-5-4----4-5-4----------------------------------| 
|-----------7--------4-7-5-4-2------------------------|
|-----------------------------------------------------|




|-----5-7-9-7-5-10-------5-7-5--9----------5----------|
|-8-8--------------7-7-8------8---5-5-7-8---8-7--7-7--|
|-----------------------------------------------------|  
|-----------------------------------------------------| 
|-----------------------------------------------------|
|-----------------------------------------------------|



|---5-7-5----7-------5-7-9-7-5-10--------5-7-5---9----|
|-8--------8----8-8----------------8-8-7-------8------|
|-----------------------------------------------------|  
|-----------------------------------------------------| 
|-----------------------------------------------------|
|-----------------------------------------------------|



|-----------------------------------------------------|
|-5-5-7-8-7-------------------------------------------|
|-----------7-6-4-------------------------------------|  
|-----------------------------------------------------| 
|-----------------------------------------------------|
|-----------------------------------------------------|

                    Em    A7                        D
Enquanto espero acontecer  enquanto espero ver no cais
C#7                  F#7+  G#m         C#7/9-     F#7 F#/E D C#7 Bm
Vou derramando sem querer       a febre dos meus ais
11.216 exibições

Comentários 0

Consegui tocarAinda não conseguiram tocar essa música. Seja o primeiro!
    Não consegui tocar
    Exibir acordes »
    publicidade
    fechar