Não Toca Em Minha Vitrola

João Carreiro e Capataz

 João Carreiro e Capataz
Tom: D
		

Intro: D  A7  D  A7  D ( D  A7 ) (2x)
D|--------------------------------------------------------------|
A|--9-7---------------------------------------------------------|
F|--8-7-8-7-8--9-10--1^0-1^0----1^0-1^0-----1^0-1^0-------------|
D|------9-7-9-10-11-----------2----------2----------2-0---2-2/4-|
A|------------------------------------------------------4-------|



D|--------------------------------------------------------------|
A|-------------------------------------0----0----0--------------|
F|--8---7-------------------------1/3----1---1/3----12-Harmonic-|
D|00--------9---7---9---10---11----------2----------12-Harmonic-|
A|00--0---0---0---0---0----0------------------------------------|



D                                                                A7  A7 G A7
Esquecendo da cultura, "tão" mudando a postura só pra fugir do lugar
A7                                                               D
É o sertanejo moderno, brinco de argola e terno só canta comercial


D|----2-2-2-2/4-4-
A|----4-4-4-4/5-5-


D                                                      D7         G  A  G
Modinha sem fundamento deixando no esquecimento toda nossa tradição
                 A7                                           D
Não se fala em boiada, é só moda bagunçada e o assunto é traição


F#|-0-1/3-0-5
D||-0-2/4-0-5
A||-----5-0-5


G                   A7
 Pode até fazer sucesso, mas se tem brinco de argola

E se dança e rebola...


D|-------0-1-2/7---
A|--0-2-4----------


                       D
não toca em minha vitrola.
Introdução:

               D A7 D A7 D     (D A7 )2X PAGODE
D|--------------------------------------------------------------|
A|--9-7---------------------------------------------------------|
F|--8-7-8-7-8--9-10--1^0-1^0----1^0-1^0-----1^0-1^0-------------|
D|------9-7-9-10-11-----------2----------2----------2-0---2-2/4-|
A|------------------------------------------------------4-------|



D|--------------------------------------------------------------|
A|-------------------------------------0----0----0--------------|
F|--8---7-------------------------1/3----1---1/3----12-Harmonic-|
D|00--------9---7---9---10---11----------2----------12-Harmonic-|
A|00--0---0---0---0---0----0------------------------------------|



D                                                                A7  A7 G A7
Quem tem usar da viola pra levantar sua bola me dói no fundo da alma
A7                                                                D
Só pensando em ter lucro, o sertanejo fajuto não sabe o valor da palma


D|----2-2-2-2/4-4-
A|----4-4-4-4/5-5-


D                                                           D7         G   G D G
Nunca viu fã de verdade, que até chora de saudade quando escuta um modão
                    A7                                                 D
Caipira é sem esculacho, não empurra goela abaixo, escuta quem tem paixão


F|-0-1/3-0-5-
D|-0-2/4-0-5-
A|-----5-0-5-


G                  A7
Pode até fazer sucesso, mas se tem brinco de argola

E se dança e rebola...


D|-------0-1-2/7---
A|-0-2-4----------


                        D
 não toca em minha vitrola.

D|--0-0-0-0-0-0-0-0--5-5-5-5-0-0-5--|
A|--0-0-0-0-0-0-0-0--5-5-5-5-0-0-5--|
F|--0-0-0-1-0-0-0-1--5-5-5-5-0-0-5--|
D|--0-0-0-2-0-0-0-2--5-5-5-5-0-0-5--|
A|--0-0-0-0-0-0-0-0--5-5-5-5-0-0-5--|


Moda boa faz sentido, não precisa de gemido pra demonstrar sentimento

D|----------------------------------------------------------------------0-|
A|-----------5-5--------------------------------------------------------0-|
F|--5-5-5-5--5-5--6-6--6-6--5-5-3-1--0--0--0--0--0--0--0--3--3--1--1/3--0-|
D|--5-5-5-5-------7-7--7-7--5-5-4-2--0--0--0--0--0--0--0--4--4--2--2/4--0-|
A|----------------------------------------------------------------------0-|


Fã da moda verdadeira tem a coleção inteira, não só modinha do momento

D|--------------------------------------------------------------------------5-|
A|--------------------------------------------------------------------------5-|
F|--0--0--0--0--1--1--0--0--0--0--0--0--1--1--0--0--0--0--0--0--------------5-|
D|--0--0--0--0--2--2--0--0--0--0--0--0--2--2--0--0--0--0--0--0--0--0--0--0--5-|
A|--------------------------------------------------------------0--0--0--2--5-|


É ignorância minha, mas igual galo de rinha meto a espora e firmo a asa

D|-----------------------------------------------------------------------------|
A|--------------7--7-----------------------------------------------------------|
F|--7--7--7--7--7--7--8--8--8--8--7--7--7--7--3--3--3--3--1--1--1--1--0--------|
D|--7--7--7--7--------9--9--9--9--7--7--7--7--4--4--4--4--2--2--2--2--0--2--0--|
A|-----------------------------------------------------------------------4--0--|


Enquanto eu ''tivé'' vivo e Deus me der juízo,      isso não toca la em casa

D|------------------------------------------------------------------------------|
A|--------------------7---------------------------------------------------------|
F|--7--7--7--7--7--8--7--7--5--5--5--5--5--7--8--7------------------------------|
D|--7--7--7--7--7--9-----7--5--5--5--5--5--7--9--7--0--0--0--0--0--0--4--4--4~--|
A|--------------------------------------------------0--0--0--0--0--0--5--5--5~--|



D|-4-4-2-2-5
A|-5-5-4-4-5



G                  A7
Pode até fazer sucesso, mas se tem brinco de argola

E se dança e rebola,


D|-------0-1-2/7---
A|-0-2-4----------

                        D
não toca em minha vitrola.

Pode até fazer sucesso, mas se tem brinco de argola

D|-----------------------------------------------------|
A|-----------------------------------------------------|
F|--5--5--5--5--5--5--3--1--1--1--1--1--1--1--0--------|
D|--5--5--5--5--5--5--4--2--2--2--2--2--2--2--0--2--2--|
A|-----------------------------------------------4--4--|

E se dança e rebola, não toca em minha vitrola.

D|-----------------------------------------------0-|
A|-----------------------------------------------0-|
F|--------------------------7--7--1--1--5--3--1--0-|
D|--2--2--2--2--2--2--0--2--7--7--2--2--5--4--2--0-|
A|--4--4--4--4--4--4--2--4-----------------------


Texto Colunas
Alterar tom ½ tom ½ tom
afinação acordes na letra esconder tabs mais »
25.891 exibições

Comentários 3

  • Rauan Rauan: Postado em 18/02/2014 13:33

    Top D+++++++++++

  • anvivi anvivi: Postado em 25/07/2012 22:28

    é sim F#, pq só F naum da certo,

  • alvaropatrik alvaropatrik: Postado em 31/05/2012 16:12

    Que afinação de viola é essa?? Seria um F# no lugar do F né (Cebolão em Ré) ??

Composição: João Carreiro
Esse não é o compositor? Avise-nos.
Contribuição: anisseto
  1. Até Você Voltar - Henrique e Juliano Manteve-se 88.313 exibições
  2. Domingo de Manhã - Marcos e Belutti Manteve-se 75.830 exibições
  3. Cuida Bem Dela - Henrique e Juliano Manteve-se 51.562 exibições
  4. Diz Pra Mim - Banda Malta Manteve-se 43.920 exibições
  5. Raridade - Anderson Freire Manteve-se 42.362 exibições
  6. Recaídas - Henrique e Juliano Manteve-se 40.795 exibições
  7. Só Os Loucos Sabem - Charlie Brown Jr. Manteve-se 30.249 exibições
  8. Pra Você - Onze:20 Manteve-se 29.620 exibições
  9. Tudo Que Você Quiser - Luan Santana Manteve-se 27.139 exibições
  10. Logo Eu - Jorge e Mateus Manteve-se 26.801 exibições
  1. Henrique e Juliano- Manteve-se 272.036 exibições
  2. Jorge e Mateus- Manteve-se 216.930 exibições
  3. Legião Urbana- Manteve-se 197.496 exibições
  4. Charlie Brown Jr.- Manteve-se 145.021 exibições
  5. Fernandinho- Manteve-se 116.835 exibições
  6. Bruno e Marrone- Manteve-se 114.776 exibições
  7. Luan Santana- Manteve-se 113.632 exibições
  8. Marcos e Belutti- Manteve-se 93.473 exibições
  9. Thalles Roberto- Manteve-se 91.835 exibições
  10. Victor e Leo- Manteve-se 90.054 exibições
Exibir acordes »

Cifras e tabs

Fórum Cifra Club

Aprenda

Cifra Club News

Mais Serviços Cifra Club ID

Studio Sol

©1996 - 2014 Cifra Club · o primeiro, maior e mais acessado do Brasil · 341 mil músicas · 6.3 milhões pessoas cadastradas

publicidade
fechar