Sete Sentidos

João Carreiro e Capataz

 João Carreiro e Capataz
Tom: E
		
Introdução junto com a Primeira Estrofe


E|---------------------------------------------
B|---------------------------------------------
G|-----------------4--2-------------4----------
D|----2--4--4/6--2----------6--4-------4/6-----
A|--2------------------------------------------
E|---------------------------------------------



E|---------------------------------------------
B|---------------------------------------------
G|-----------------4--2------------------------
D|----2--4--4/6--2---------6--4-----1-1/2------
A|--2------------------------------------------
E|---------------------------------------------



E|---------------------------------------------
B|---------------------------------------------
G|---------------------------------------------
D|----6p4--6p4---2-----------------------------
A|---------------------------------------------
E|---------------------------------------------




Primeira Estrofe:
E                 A
O ser humano possui 5 sentidos...
         B7                  E
tato, olfato, paladar, visão e audição.
         E                                     A
O 6º sentido pra quem não sabe e a Premonição...
                              B7
O 7º sentido qual poderia ser?
                              E                           E E4 E
No meu caso, ela roubou de mim que é o sentido de viver...

E                          B7
Pra que, que eu quero os olhos
A                 E        E E4 E
Se eu não posso mais te ver
E                     B7
De que me serve o gosto
A                  E       E E4 E
Se eu não posso beijar você
E                      B7
Pra que, que quero ouvir
A                       E   E E4 E
Se eu não esculto a sua voz
E                     B7
Não posso mais te tocar
                         A
Não sinto seu cheiro no ar
                   E     E E4 E
Mais não esqueço de nos

E             B7
E eu vou seguindo
A             E      E E4 E
Sem ter mais prazer
E               B7
Todos meus sentidos
             A
Não tem sentido
          E  E E4 E
Sem ter você
E            B7
Estou pressentindo,
A             E   E E4 E
Que eu vou morrer
E                 A
Quando você me deixou
             B7             E      E E4 E
Você me tirou o sentido de viver...

Base Solo: 2x(E B7 A E)

Solo:


E|--------------------------------------------------------------
B|--------------------------------------------------------------
G|--------------------------------------------------------------
D|----2--4--4/6--4--2--2h4--------------------------------------
A|--2-------------------------2h4--4-4-4-2---2------------------
E|-----------------------------------------5--------------------



E|--------------------------------------------------------------
B|--------------------------------------------------------------
G|--------------------------------------------------------------
D|----2--4--4/6--4--2--2h4----2-2h4-2---2-----------------------
A|--2---------------------------------4---2-2h4-2---2-----------
E|------------------------------------------------4---2b3r2-0-----



E                      B7
Pra que, que quero ouvir
A                       E   E E4 E
Se eu não esculto a sua voz
E                     B7
Não posso mais te tocar
                         A
Não sinto seu cheiro no ar
                   E     E E4 E
Mais não esqueço de nos

E             B7
E eu vou seguindo
A             E      E E4 E
Sem ter mais prazer
E               B7
Todos meus sentidos
             A
Não tem sentido
          E  E E4 E
Sem ter você
E            B7
Estou pressentindo,
A             E   E E4 E
Que eu vou morrer
E                 A
Quando você me deixou
             B7             E      E E4 E
Você me tirou o sentido de viver...


E                 A
Quando você me deixou
             B7             E      E E4 E
Você me tirou o sentido de viver...
11.548 exibições

Comentários 2

Composição: Sabe quem é o compositor? Envie pra gente. Contribuição: master02 Correções: rogerio.junior.5437 e mais 1 »
Exibir acordes »
publicidade
fechar