Amantes e Amigos

João Mineiro e Marciano

 João Mineiro e Marciano
Tom: G
		

E|-------------------------------------------------------------------------------------------------|
B|---7-8--13-13-13-13---13-12-13-12-10-10---12-12-12-12---12-10-12-10-8-8--5-7-8-7-5---5-7-8-7-5---|
G|-9---------------------------------------------------------------------------------5~---------7~-|
D|-------------------------------------------------------------------------------------------------|
A|-------------------------------------------------------------------------------------------------|
E|-------------------------------------------------------------------------------------------------|



E|-------------------------------------------------------------------------------------------------|
B|---7-8-9-8-9-8-10/12---10-12-10------------------------------------------------------------------|
G|-9-----------------------------------------------------------------------------------------------|
D|-------------------------------------------------------------------------------------------------|
A|-------------------------------------------------------------------------------------------------|
E|-------------------------------------------------------------------------------------------------|


Intro: Am D7 B7 Em C D7 G Em Am D7

      G                    C
Eu só quero que voce permaneça
       D                 G
Minha amiga como sempre foi
                       C
Se erramos por favor esqueça
     D                    G
Se errei por favor me perdoe

     C            D              B7         Em
E que culpa tenho eu por me entregar inteiramente
     C            D              B7         Em
E que culpa tem você se me entregou tão de repente
         D      Am          D    D7       G    Em
Não se acanhe esqueça o que houve, sem rancor...
     D                 D7            G   G7
A Amizade acabou nos levando... ao amor

        C                D                   G
E esse caso somente acontece a quem se quer bem
          Em
Assim eu penso
     C                      D                  G
Convivência vai se transformando em amor tão imenso
          Em
Pode ir além
     Am                   D7
Como nós, que por sermos amigos
 G
Amamos também

(intro)

       G                  C
Nós estamos quase em desespero
        D                 G
Com vergonha do que aconteceu
                           C
Mesmo havendo um amor verdadeiro
       D                    G
Não é minha e nem posso ser seu

    C            D          B7          Em
E por isso vou ficar sendo somente seu amigo
   C              D         B7                Em
Esquecer do nosso caso pra viver de um modo antigo
       D        Am         D   D7         G     Em
Dois amantes que por necessidade... Silenciaram...
       D                     D7            G    G7
Dois amigos que de tanta amizade... Se amaram...

        C               D                    G
E esse caso somente acontece a quem se quer bem
          Em
Assim eu penso
      C                     D                  G
Convivência vai se transformando em amor tão imenso
          Em
Pode ir além
      Am                  D7
Como nós, que por sermos amigos
 G            Em
Amamos também
       Am                 C  D7
Como nós, que por sermos amigos
 G           C  G
Amamos também
56.793 exibições

Comentários 0

Composição: João Mineiro e Marciano
Esse não é o compositor? Avise-nos.
Contribuição: Salviano Correções: alexferreira e mais 2 »
Exibir acordes »
publicidade
fechar