Ninguém É de Ninguém

João Pedro Pais

 João Pedro Pais Compositor: Hboss
Tom: A
		
Intro: A  E  F#m


E|----|-------|-------------|------------|
B|----|--5-0--|--5h7-7-5-2--|--2---------|
G|--2-|-------|-------------|------------|
D|----|-------|-------------|------------|
A|----|-------|-------------|--0---------|
E|----|-------|-------------|------------|



E|----|-------|-------------|------------|
B|----|--5-0--|--5-7-9h10-7-|--7---------|
G|--2-|-------|-------------|------------|
D|----|-------|-------------|------------|
A|----|-------|-------------|--9---------|
E|----|-------|-------------|------------|


A              E       F#m      Bm
Conta-me histórias de tempos
                 	 E         A
A que eu gostaria de voltar
           E         F#m        Bm
Tenho saudades de momentos
                          E     Bm
Que nunca mais vou encontrar
                              E        Bm
A vida talvez sejam só três dias
                          D
Eu quero andar sempre devagar
E          D
Até a ti chegar

Refrão:
                A             E                 F#m
Ninguém é de ninguém / Mesmo quando se ama alguém
                   A              E           F#m
Ninguém é de ninguém / Quando a vida nos contém
                Bm                          E
Ninguém é de ninguém / Quando dormes a meu lado
                 Bm                  D     E
Ninguém é de ninguém / Quando fico acordado
          F#m   Bm
Vendo-te dormir

                               E    F#m
Um raio de sol através de um vidro
                     C#m   Bm
Faz-me por vezes hesitar
                       E      Bm
Na vontade de estar contigo
      D           A     E        F#m  D
Pelo dia paira no ar  /  Paira no ar

(Refrão)

 Solo: A  E  F#m  D
E|----------2|-0--0-7-5-4-|-5-(5)-5----|
B|--2--2-3---|------------|------------|
G|--2--------|------------|------------|
D|-----------|------------|------------|
A|-----------|------------|------------|
E|-----------|------------|------------|



E|-5-4-4-2-|-2-0-0--|
B|---------|------3-|
G|---------|--------|
D|---------|--------|
A|---------|--------|
E|---------|--------|
15.386 exibições

Comentários 0

Composição: Al Rumjen / Dave Owens
Esse não é o compositor? Avise-nos.
Contribuição: hugooliveiraa Correções: afonsojac , hugooliveiraa e mais 2 »
Exibir acordes »
publicidade
fechar