Ei moleque

John Bala Jones

 John Bala Jones
Tom: A
		
Intro 1(com a fala)- Com Distorção

|----------------------------------------------------------------| 
|----------------------------------------------------------------|
|----------------------------------------------------------------|
|----------7-7-7-6--6-6-6-6-6-6----------------------------------|
|--4-4-4-4-5-5-5-4--4-4-4-4-4-4----------------------------------|
|--2-2-2-2-------------------------------------------------------|

"Atenção central confirmada a perseguição do suspeito,menor, 
por volta de 14 anos, camisa branca bermuda azul,
correndo sentido leste zona sul".  
Logo após a Intro 1(com a fala) faça isso:

|----------------------------------------------------------------| 
|----------------------------------------------------------------|
|----------------------------------------------------------------|
|----------7-7-7-6--6-6-6-9-9-9-7--7-7-7--11-11-11--9-9-9-9-9-9-9|
|--4-4-4-4-5-5-5-4--4-4-4-7-7-7-5--5-5-5---9--9--9--7-7-7-7-7-7-7|
|--2-2-2-2-------------------------------------------------------|


Intro 2
Nessa parte no começo de cada frase tem que bater 4X bem rapido nas cordas grossas do acorde F#m.
(F#m F#m A A)2VEZES
--------------/
Parado porra  |
È a policia   |2X Com Distorção
Vagabundo     |
Mão na cabeça |
--------------
F#m <<F#m        Bm7/D                                
Ei moleque aonde você vai?
A             C#m7
Por este lado você ta perdido
F#m          D
Cadê tua mãe? Quem é teu pai?
A                 C#m7
Nesse mundo cruel, nesse mundo bandido

e|--------------------------------------------------------------------| {distorção}
b|--------------------------------------------------------------------|
g|--------------------------------------------------------------------|
D|-----7---------7-9-11-12-9-7-6-7-------7---------7-9-11-12-9-7-6-7--|
A|-7-9---9-7-9-----------------------7-9---9-7-9----------------------|
E|--------------------------------------------------------------------|


(F#m  Bm7/D A  C#m7)       [segue sempre igual]
E foi assim que tudo começou
Pois não tinha para onde ir
Cansado de ser humilhado
Sua vida chegava ao fim

Não por usar drogas   |2x
Não por diversão      |
Não por bandidagem    |
Por obrigação         | 

Já não havia tempo pra voltar atrás
Mudar o destino nunca mais
Tanta desigualdade tanto preconceito
Isso eu não engulo eu não aceito!

Assim não tem jeito não tem jeito não
Tem jeito não                        
Assim não tem jeito não tem jeito não
Tem jeito não                         

Por tentar tentar e não conseguir vencer
Perdido sem saber pra onde correr
Cansado de esperar esse dia nascer


Não vou esperar         
Não vou esperar           

e|--------------------------------------------------------------------| {distorção}
b|--------------------------------------------------------------------|
g|--------------------------------------------------------------------|
D|-----7---------7-9-11-12-9-7-6-7-------7---------7-9-11-12-9-7-6-7--|
A|-7-9---9-7-9-----------------------7-9---9-7-9----------------------|
E|--------------------------------------------------------------------|





*** RAP ***
Muitos dias e noites muitas madrugadas
Dias melhores era o que ele esperava
Escuta o que eu tô te falando
O conselho que eu to te dando
A paz não é um sonho
Acorda pra vida não fica sonhando
O mundo da voltas existem vários caminhos
Na vida do crime não a flor só espinhos
Difícil é enxergar através do muro
Assim como ta não da pra ficar não vejo futuro

Tanta desigualdade tanto preconceito
Isso eu não engulo
Eu não aceito!
Assim não tem jeito não tem jeito não
Tem jeito não 
Assim não tem jeito não tem jeito não
Tem jeito não 

Por Tentar tentar e não conseguir vencer
Perdido sem saber pra onde correr
Cansado de esperar esse dia nascer
Não vou esperar
Eu não vou esperar
Por este lado você ta perdido
Cadê tua mãe? Quem é teu pai?
Nesse mundo cruel, nesse mundo bandido

e|--------------------------------------------------------------------| 
b|--------------------------------------------------------------------|
g|--------------------------------------------------------------------|
D|-----7---------7-9-11-12-9-7-6-7-------7---------7-9-11-12-9-7-6-7--|
A|-7-9---9-7-9-----------------------7-9---9-7-9----------------------|
E|--------------------------------------------------------------------|



e|--------------------------------------------------------------------| {distorção}
b|--------------------------------------------------------------------|
g|--------------------------------------------------------------------|
D|-----7---------7-9-11-12-9-7-6-7-------7---------7-9-11-12-9-7-6-7--|
A|-7-9---9-7-9-----------------------7-9---9-7-9----------------------|
E|--------------------------------------------------------------------|


Refrão:
F#m        Bm7/D                                
Ei moleque aonde você vai?
A             C#m7
Por este lado você ta perdido
F#m          D
Cadê tua mãe? Quem é teu pai?
A                 C#m7
Nesse mundo cruel, nesse mundo bandido

---Termina com a Intro 1-------
______________________________________________________
73.326 exibições

Comentários 1

  • madson11 madson11: Postado em 25/01/2012 14:33

    po mem tava esperando muito esse musica vlw ai

Composição: Giulio Franco Giacomazzi E Guilherme Ribeiro
Esse não é o compositor? Avise-nos.
Contribuição: marks_woody Correções: bodão , Carbone e mais 4 »
Exibir acordes »
publicidade
fechar