The World's Edge

John Frusciante

 John Frusciante
Tom: 
		

E|------------------------------------------------------------------------------|
B|----6----------5---------9-----9----------------------------------------------|
G|------7----------5-------------9-----9----------------------------------------|
D|------7----------5-----------9-------9----------------------------------------|
A|----5----------3---------7---------7------------------------------------------|
E|------------------------------------------------------------------------------|

    These are different lives...


E|------------------------------------------------------------------------------|
B|----6----------5---------9------------------9---9---10-10---8-8---9----9---9--|
G|------7----------5-------------9---9--------9---9---10-10---9-9---9----9---9--|
D|------7----------5-----------9---9---9----9---9----------------------9--------|
A|----5----------3---------7--------------------------8-------------7------7----|
E|---------------------------------------0--------------------8-----------------|

 ...being lived at the same time...        ...like holding on to a whole...


E|------------------------5------------5--------5---5---------------5---5-------|
B|----10-10---8-8---6-6---5------------6---10---5---6----------10---5---6-------|
G|----10-10---9-9---7-7---5------------7---10---5---7----------10---5---7-------|
D|------------------------7------------7---10---7---7----------10---7---7-------|
A|----8-------------5-----7------------5---8----7---5----------8----7---5-------|
E|------------8-----------5---------------------5-------------------5-----------|

                                     the world's...       ...off her


E|------------------------------------------------------------------------------|
B|----5-6--5-6--5-6--8---------5-6--5-6--5-6------------------------------------|
G|--------------6-6--6-------------------6-7------------------------------------|
D|----8----7----7--------------8----7----7----7---------------------------------|
A|-------------------7------------------------8---------------------------------|
E|------------------------------------------------------------------------------|

...and that will be the end of me...

(...repeat first parts...)


E|------------------------------------------------------------------------------|
B|----6---10---5---6------6---10---3---6-------3---6---1---6--------------------|
G|----7---10---5---7------7---10---3---7-------3---7---2---7--------------------|
D|----8---10---7---7------8---10---5---7-------5---7---3---7--------------------|
A|----8---8----7---5------8---8----5---5-------5---5---3---5--------------------|
E|----6--------5----------6--------3-----------3-------1------------------------|

 ...all i know is right...
623 exibições

Comentários 0

Composição: John Frusciante / Ricardo Augusto
Esse não é o compositor? Avise-nos.
Contribuição: fruscianter
Consegui tocarAinda não conseguiram tocar essa música. Seja o primeiro!
    Não consegui tocar
    Exibir acordes »
    publicidade
    fechar