All Of Me

John Legend

 John Legend
Tom: G#(acordes na forma do tom G)
Capotraste na 1ª casa		
Intro 2x: E5  C  G  D5

E5               C
   What would I do
                    G
Without your smart mouth
               D5
Drawing me in, and you kicking me out
E5         C
   Got my head spinning
 G             D5            E5
No kidding, I can’t pin you down
             C                     G
What’s going on in that beautiful mind
             D5              E5
I’m on your magical mystery ride
         C
And I’m so dizzy 
        G
Don’t know what hit me 
    D5
But I’ll be alright

Pré-refrão:

Am                  G
   My head’s under water
    D              Am
But I’m breathing fine
                 G              D
You’re crazy and I’m out of my mind

Refrão:

       G
‘Cause all of me
      Em
Loves all of you
           Am/C
Love your curves and all your edges
          C/D          D
All your perfect imperfections

          G
Give your all to me
             Em
I’ll give my all to you
          Am/C
You’re my end and my beginning
       C/D            D
Even when I lose I’m winning
                  Em  C     G  D
‘Cause I give you all   of me
                Em  C     G   D
And you give me all   of you, all

Segunda Parte:

Em           C                       G
   How many times do I have to tell you
                   D
Even when you’re crying 
                  Em
You’re beautiful too

              C           G
The world is beating you down
      D                   Em
I’m around through every move
           C                   G
You’re my downfall, you’re my muse
              D
My worst distraction
                Em
My rhythm and blues
              C
I can’t stop singing
      G           D
It’s ringing, in my head for you

Pré-refrão:

Am                  G
   My head’s under water
    D              Am
But I’m breathing fine
                 G              D
You’re crazy and I’m out of my mind

Refrão:

       G
‘Cause all of me
      Em
Loves all of you
           Am/C
Love your curves and all your edges
          C/D          D
All your perfect imperfections

          G
Give your all to me
             Em
I’ll give my all to you
          Am/C
You’re my end and my beginning
       C/D            D
Even when I lose I’m winning
                  Em  C     G  D
‘Cause I give you all   of me
                Em  C     G   D
And you give me all   of you, all

Terceira Parte:

                Am
Give me all of you
              G
Cards on the table
       D            Am
We’re both showing hearts
           G                 D
Risking it all, though it’s hard

Refrão:

       G
‘Cause all of me
      Em
Loves all of you
           Am/C
Love your curves and all your edges
          C/D          D
All your perfect imperfections

          G
Give your all to me
             Em
I’ll give my all to you
          Am/C
You’re my end and my beginning
       C/D            D
Even when I lose I’m winning
                  Em  C     G  D
‘Cause I give you all   of me
                Em  C     G   D
And you give me all   of you, all

           Em  C     G  D
I give you all   of me
                Em  C     G   D
And you give me all   of you, all

Dedilhado Intro e Primeira Parte:

   E5      C       G       D5
E|------------------------------------------|
B|------------------------------------------|
G|-4-4-4---5-5-5---4-4-4---2-2-2------------|
D|-2-2-2---2-2-2---0-0-0---0-0-0------------|
A|---------3--------------------------------|
E|-----------------3------------------------|

Dedilhado Pré-refrão:

   Am
E|------------------------------------------|
B|-------1--------------1-------------------|
G|-----2---2---2------2---2---2-------------|
D|---2-------2------2-------2---------------|
A|-0--------------0-------------------------|
E|------------------------------------------|

   G              D
E|----------------------2-------------------|
B|-------0------------3---3---3-------------|
G|-----0---0---0----2-------2---------------|
D|---0-------0----0-------------------------|
A|------------------------------------------|
E|-3----------------------------------------|

Dedilhado Refrão:

Sequência 1 (2x)

   G
E|------------------------------------------|
B|-----3------------3-----------------------|
G|-----0-0---0------0-0---0-----------------|
D|---0-----0------0-----0-------------------|
A|------------------------------------------|
E|-3------------3---------------------------|

   Em
E|------------------------------------------|
B|-----0------------0-----------------------|
G|-----0-0---0------0-0---0-----------------|
D|---2-----2------2-----2-------------------|
A|------------------------------------------|
E|-0------------0---------------------------|

   Am/C
E|------------------------------------------|
B|-----1------------1-----------------------|
G|-----2-2---2------2-2---2-----------------|
D|---2-----2------2-----2-------------------|
A|-3------------3---------------------------|
E|------------------------------------------|

   C/D          D
E|-----0------------2-----------------------|
B|-----1-1---1------3-3---3-----------------|
G|---0-----0------2-----2-------------------|
D|-0------------0---------------------------|
A|------------------------------------------|
E|------------------------------------------|

Sequência 2 (2x)

   Em           C
E|------------------------------------------|
B|-----0------------1-----------------------|
G|-----0-0---0------0-0---0-----------------|
D|---2-----2------2-----2-------------------|
A|--------------3---------------------------|
E|-0----------------------------------------|

   G            D
E|------------------2-----------------------|
B|-----3------------3-3---3-----------------|
G|-----0-0---0----2-----2-------------------|
D|---0-----0----0---------------------------|
A|------------------------------------------|
E|-3----------------------------------------|

Dedilhado Terceira Parte:

   Am
E|------------------------------------------|
B|-----1------------1-----------------------|
G|-----2-2---2------2-2---2-----------------|
D|---2-----2------2-----2-------------------|
A|-0------------0---------------------------|
E|------------------------------------------|

   G            D
E|------------------2-----------------------|
B|-----3------------3-3---3-----------------|
G|-----0-0---0----2-----2-------------------|
D|---0-----0----0---------------------------|
A|------------------------------------------|
E|-3----------------------------------------|

Comentários 13

  • Thaís Thaís: Postado em 15/12/2014 20:15

    Legalzinha

  • Marcelo Marcelo: Postado em 08/12/2014 19:06

    No site SuperPartituras, vocês podem baixar de graça as partituras do John Legend, aproveitem!!!

  • lucas lucas: Postado em 17/11/2014 00:07

    porque que só da pra ver a video aula completa no youtube?

  • Vanollo Vanollo: Postado em 13/11/2014 17:57

    Tava na hora, wahoooooo

  • violão violão: Postado em 21/09/2014 11:08

    galera coloquem o capo na primeira casa e toque essa cifra q vai da certo

  • lpbruno12 lpbruno12: Postado em 08/09/2014 17:59

    Na verdade o tom é em Fm

  • Thaina Thaina: Postado em 07/09/2014 10:42

    alguém toca essa música com capo ?

  • giovanni.picardi.587 giovanni.picardi.587: Postado em 05/09/2014 13:27

    video aulaaaaaa

  • Lucas Kelvin Lucas Kelvin: Postado em 26/05/2014 22:24

    bbccbc

  • juliana.silva.58118774 juliana.silva.58118774: Postado em 26/05/2014 19:22

    Procurem por ''All Of Me John Legend Cover by SUNN'' e lá tem o ritmo...

Exibindo 10 de 13 comentários Mostrar mais ver todos »
Composição: John Legend
Esse não é o compositor? Avise-nos.
Contribuição: Carolina Correções: Sibele , rodriigorock e mais 15 »
Exibir acordes »
publicidade
fechar