Shadow Days

John Mayer

 John Mayer
Tom: D
		
Intro:


E|-----------------------------------------------|
B|---10~--7--10--10/12/10---8---5h7p5------------|
G|-----------------------------------7-----------|
D|-----------------------------------------------|
A|-----------------------------------------------|
E|-----------------------------------------------|



E|------------------------------------------------|
B|---5h7--10-10~----7-10--10/12/10---8--5h7p5-----|
G|--------------------------------------------7---|
D|------------------------------------------------|
A|------------------------------------------------|
E|------------------------------------------------|


D                    C9
  Did you know that you could be wrong
      G                Em
And swear you're right
D                     C9
   Some people been known to do it
G               Em
All their lives
         D              C9
But you find yourself alone
               G                Em
Just like you found yourself before
        D               C9
Like I found myself in pieces
       G      Em
On my hotel floor

G     F#m   Em      A
Hard times help me see

       D               A/C#
I'm a good man with a good heart
       G
Had a tough time, got a rough start
       Bm                 A      G
And I finally learned to let it go
         D                   A/C#
Now I'm right here, and I'm right now
         G
And I'm hoping, knowing somehow
          Bm            A
That my shadow days are over
     G
My shadow days are over now

       D                 C9
Well I ain't no trouble maker
       G               Em
And I never meant her harm
        D              C9
But it doesn't mean I didn't make it
 G               Em
Hard to carry on
         D                 C9
Well it sucks to be honest (honest)
        G           Em
And it hurts to be real
          D                 C9
But it's nice to make some love
            G       Em
That I can finally feel

G     F#m   Em     A
Hard times let me be

       D               A/C#
I'm a good man with a good heart
       G
Had a tough time, got a rough start
       Bm                 A      G
And I finally learned to let it go
         D                   A/C#
Now I'm right here, and I'm right now
         G
And I'm hoping, knowing somehow
          Bm             A
That my shadows days are over
     G
My shadow days are over now

Solo:


E|--------------7/9/6---------------7/10/7---7-10-7--14(10x)-12-10-------|
B|---10--7---10---------10--7---10---------------------------------------|
G|------7------------------7---------------------------------------------|
D|-----------------------------------------------------------------------|
A|-----------------------------------------------------------------------|
E|-----------------------------------------------------------------------|



E|--5/7-7-7-5--2p0---5/7-7-7-5--2p0---------------0-----0----------|
B|--5/7-7-7-5--3-3---5/7-7-7-5--3-3--3h5-3h5-3h5----3-----3--------|
G|-----------------------------------2---2---2--------2-----2------|
D|-----------------------------------------------------------------|
A|-----------------------------------------------------------------|
E|-----------------------------------------------------------------|


( D  G )


E|--5/7-7-7-5-5-5-2-2-2p0---------0-----0--------------------------|
B|--5/7-7-7-5-5-5-3-3-3-3---3h5p3----3-----3-----------------------|
G|--------------------------2-----------2-----2--------------------|
D|-----------------------------------------------------------------|
A|-----------------------------------------------------------------|
E|-----------------------------------------------------------------|


       D               A/C#
I'm a good man with a good heart
       G
Had a tough time, got a rough start
       Bm                 A      G
And I finally learned to let it go
         D                   A/C#
Now I'm right here, and I'm right now
         G
And I'm hoping, knowing somehow
          Bm             A
That my shadows days are over
     G
My shadow days are over now
Texto Colunas
Alterar tom ½ tom ½ tom
afinação acordes na letra esconder tabs mais »
35.472 exibições

Comentários 8

  • playmobs playmobs: Postado em 03/11/2012 15:05

    Musica MUITO BOA, Solos não são tão complicados de pegar, escutem bem a musica na parte dos solos que vcs pegam o tempo certo e o jeito ;)

  • marrcos_ marrcos_: Postado em 12/08/2012 18:15

    videoo aulaa ^^

  • letcosta letcosta: Postado em 19/07/2012 14:18

    Gente, onde tem F# na verdade é F#m. E o refrão, ao meu ver fica D - A/C# - G - G - Bm - A - G - G (2x). ;)

  • natcalchi natcalchi: Postado em 14/07/2012 15:57

    video aula seria bem melhor.

  • paulacoro paulacoro: Postado em 16/05/2012 20:32

    Fica bem melhor assim:
    Bm --------------A--------------- G
    And I finally learned to let it go

  • titoin titoin: Postado em 03/05/2012 12:36

    Niceeeeee

  • reinold reinold: Postado em 05/04/2012 18:27

    oshee, musica facil, só a ultima parte do ultimo solo qe num peguei mt bem

  • gui_fontoura gui_fontoura: Postado em 22/03/2012 23:56

    Seria possivel fazer uma video-aula para explica melhor como tocar?
    Grato.

Composição: Sabe quem é o compositor? Envie pra gente. Contribuição: math510 Correções: Caio , digo e mais 2 »
  1. Até Você Voltar - Henrique e Juliano Manteve-se 88.213 exibições
  2. Domingo de Manhã - Marcos e Belutti Manteve-se 73.147 exibições
  3. Cuida Bem Dela - Henrique e Juliano Manteve-se 64.261 exibições
  4. Rude - Magic! Manteve-se 49.449 exibições
  5. Diz Pra Mim - Malta Manteve-se 46.383 exibições
  6. Raridade - Anderson Freire Manteve-se 42.589 exibições
  7. Recaídas - Henrique e Juliano Manteve-se 37.208 exibições
  8. Só Os Loucos Sabem - Charlie Brown Jr. Manteve-se 30.537 exibições
  9. Let Her Go - Passenger Manteve-se 30.278 exibições
  10. Pra Você - Onze:20 Manteve-se 29.680 exibições
  1. Henrique e Juliano- Manteve-se 285.568 exibições
  2. Jorge e Mateus- Manteve-se 220.695 exibições
  3. Legião Urbana- Manteve-se 194.422 exibições
  4. Charlie Brown Jr.- Manteve-se 147.872 exibições
  5. Bruno e Marrone- Manteve-se 117.970 exibições
  6. Fernandinho- Manteve-se 115.536 exibições
  7. Luan Santana- Manteve-se 99.982 exibições
  8. Victor e Leo- Manteve-se 91.754 exibições
  9. Marcos e Belutti- Manteve-se 90.432 exibições
  10. Thalles Roberto- Manteve-se 87.022 exibições
Exibir acordes »

Cifras e tabs

Fórum Cifra Club

Aprenda

Cifra Club News

Mais Serviços Cifra Club ID

Studio Sol

©1996 - 2014 Cifra Club · o primeiro, maior e mais acessado do Brasil · 341 mil músicas · 6.3 milhões pessoas cadastradas

publicidade
fechar