Shadow Days

John Mayer

 John Mayer
Tom: G
		
Intro:

D  C9/A  Em7(9)  (2x)

1

   D
E|------------------------------------------|
B|-10---------11-------------\--------------|
G|----11-------------11----11\--------------|
D|--------12------------12---\--------------|
A|------------------------------------------|
E|-10------------10----------\--------------|


2

   C9/A
E|---------10-------------------------------|
B|----------------8---\---------------------|
G|-------9-----9-----9\---------------------|
D|---10-10----10----10\---------------------|
A|-0-----------------0\---------------------|
E|------------------------------------------|


3

                 Em7(9)
E|----------------------2-------------------|
B|---------------------------3--------------|
G|-------------------0------------0----0----|
D|-----------------0------0----0----0-------|
A|---x-------5\-----------------------------|
E|-3-3--5/7------0--------------------------|


4

   D
E|------------------------------------------|
B|----------10------------------------------|
G|-------11--------11----11-----------------|
D|----12-------12-----12--------------------|
A|------------------------------------------|
E|-10---------------------------------------|


5

   C9/A
E|---------10-------------\-----------------|
B|----------8------8-----8\-----------------|
G|------9----------9-----9\-----------------|
D|---10--------10-----10--\-----------------|
A|-0----------------------------------------|
E|------------------------------------------|


6

                 Em7(9)
E|----------------------2-------------------|
B|---------------------------3--------------|
G|-------------------0------------0----0----|
D|-----------------0------0----0----0-------|
A|---x-------5h7----------------------------|
E|-3-3--5/7------0--------------------------|


Primeira Parte:

1

   D
E|------------------------------------------|
B|----------10------------------------------|
G|-------11-------11------------------------|
D|----12-------12---------------------------|
A|------------------------------------------|
E|-10---------------------------------------|


2

   C9/A
E|---------10-------------------------------|
B|----------8------8-----8----8-------------|
G|------9----------9-----9----9-------------|
D|---10--------10-----10---10---------------|
A|-0----------------------------------------|
E|------------------------------------------|


3

   G9
E|-------5----------------------------------|
B|-------3----------------------------------|
G|-----4-----0------------------------------|
D|---5-----5--------------------------------|
A|------------------------------------------|
E|-3----------------------------------------|


3 Variação

   G
E|------------------------------------------|
B|-------3----------------------------------|
G|-----4-----0------------------------------|
D|---5-----5--------------------------------|
A|------------------------------------------|
E|-3----------------------------------------|


4

   Em7(9)
E|--------2---------------------------------|
B|------------3-----------------------------|
G|------0---0-----0---0---------------------|
D|---0--0---0---0---0-----------------------|
A|------------------------------------------|
E|-0----------------------------------------|



D                C9/A
  Did you know that you could be wrong
      G9               Em7(9)
And swear you're right
D                  C9/A
  Some people been    known to do it
G                Em7(9)
All their lives
         D                C9/A
But you find yourself alone
               G                Em7(9)
Just like you found yourself before
        D               C9/A
Like I found myself in pieces
        G      Em7(9)
On the hotel floor


Segunda Parte:
   

   G    A    Bm   D9
E|------------------------------------------|
B|-0----2----3----5-------------------------|
G|------------------------------------------|
D|------------------------------------------|
A|------0----2----5-------------------------|
E|-3----------------------------------------|



   Em7(9)
E|--------2--------2------------------------|
B|--------3--------3------------------------|
G|-----0-------0--------0---0---0---0-------|
D|---0------0----0----0---0---0---0---------|
A|----------2-------------------------------|
E|-0----------------------------------------|



 G    A          Bm     D9  Em7(9)
Hard times have helped me  see


Refrão:

1

   D/F#
E|------------------------------------------|
B|--------3---------------3-----------------|
G|------2-----2---2-----2-----2---2---------|
D|----0-----0---0-----0-----0---0-----------|
A|------------------------------------------|
E|-2----------------2-----------------------|


2

   G
E|------------------------------------------|
B|-------3----------------3-----------------|
G|-----4-----4---4------4-----4---4---------|
D|---5-----5---5------5-----5---5-----------|
A|------------------------------------------|
E|-3----------------3-----------------------|


3

   Bm7                   A
E|------------------------------------------|
B|-------3----------------------------------|
G|-----2-----2---2---2-----2---2---2--------|
D|---0-----0---0---0------------------------|
A|-2---------------------0---0---0----------|
E|------------------------------------------|


4

   G
E|------------------------------------------|
B|-------3----------------3-----------------|
G|-----4-----4---4------4-----4---4---------|
D|---5-----5---5------5-----5---5-----------|
A|------------------------------------------|
E|-3----------------3-----------------------|



       D/F#
I'm a good man with a good heart
       G
Had a tough time, got a rough start
       Bm7                   A      G
And I finally learned to let it go
         D/F#
Now I'm right here, and I'm right now
        G
And I'm open, knowing somehow
          Bm7             A
That my shadow days are over
 G
My shadow days are over now


Repete a Intro:

D  C9/A  Em7(9)

Repete a Primeira Parte:

             D             C9/A
Well I ain't   no trouble maker
       G9              Em7(9)
And I never meant her harm
        D           C9/A
But it doesn't mean I didn't make it
 G            Em7(9)
Hard to carry on

          D            C9/A
Well it sucks to be honest
        G           Em7(9)
And it hurts to be real
          D              C9/A
But it's nice to make some love
            G       Em7(9)
That I can finally feel


Segunda Parte:

 G    A     Bm   D9  Em7(9)
Hard times let  me  be


Repete o Refrão:

       D/F#
I'm a good man with a good heart
       G
Had a tough time, got a rough start
       Bm7                   A      G
And I finally learned to let it go
         D/F#
Now I'm right here, and I'm right now
        G
And I'm open, knowing somehow
          Bm7             A
That my shadow days are over
 G
My shadow days are over now


Terceira Parte:

1

   D/F#
E|------------------------------------------|
B|-------3-----------3-------3---3----------|
G|-----2-----2-----2-----2------------------|
D|---0-----0-----0-----0-------0------------|
A|------------------------------------------|
E|-2-----------2-----------2----------------|


2

   Bb5-/D
E|-------0-----------0----------------------|
B|-----3-----3-----3-----3---3---3----------|
G|---3-----3-----3-----3-------0------------|
D|-0-----------0-----------0----------------|
A|------------------------------------------|
E|------------------------------------------|


3

   Bm7
E|-------0------------0---------------------|
B|-----3------3-----3-----3---3---3---------|
G|---2-----2------2-----2-------2-----------|
D|---------0------------0-------0-----------|
A|-2------------2-----------2---------------|
E|------------------------------------------|


4

   E7
E|-------0-----------0----------------------|
B|-----0-----0-----0-----0---0---0----------|
G|-----1---1-------1---1-----1-1-1----------|
D|---0-----0-----0-----0-------0------------|
A|-2-----------2-----------2----------------|
E|-0-----------0-----------0----------------|


5

   D9
E|-----------0-----------------0------------|
B|----------10----10----------10----10------|
G|-------11-------11-------11-------11------|
D|----12-------12-------12-------12---------|
A|------------------------------------------|
E|-10----------------10---------------------|



   D9
E|------------------------------------------|
B|----10-----10-----------------------------|
G|----11-----11-----------------------------|
D|----12-----12-----------------------------|
A|------------------------------------------|
E|-10-----10--------------------------------|


6

   G6
E|-------0-----------0----------------------|
B|-------3---3-------3---3---3----3---------|
G|-----4-----4-----4-----4---4----4---------|
D|---5-----5-----5-----5--------5-----------|
A|------------------------------------------|
E|-3-----------3-----------3----------------|


7

   Bm11                  A
E|-------0---------------0--0---------------|
B|-----7-7----7---7-7\---5--5---------------|
G|-----7----7-7-7-7-7\---6--6---------------|
D|---9------9---9---9\---7--7---------------|
A|------------------------------------------|
E|-7---------------------5--5---------------|


8

   G6
E|---------------0-----------0--------------|
B|-3--3----------3---3-------3---3---3----3-|
G|-4--4--------4-----4-----4-----4---4----4-|
D|-5--5------5-----5-----5-----5--------5---|
A|------------------------------------------|
E|-3--3----3-----------3-----------3--------|


9

   D
E|------------------------------------------|
B|----------10----------------10------------|
G|-------11-------11-------11-------11------|
D|----12-------12-------12-------12---------|
A|------------------------------------------|
E|-10----------------10---------------------|




   D
E|------------------------------------------|
B|----10-----10-----------------------------|
G|----11--11-11-----------------------------|
D|--------12--------------------------------|
A|------------------------------------------|
E|-10---------------------------------------|


10

   G
E|------------------------------------------|
B|----------12----------------12------------|
G|-------12-------12-------12-------12------|
D|----12-------12-------12-------12---------|
A|-10----------------10---------------------|
E|------------------------------------------|



   G
E|------------------------------------------|
B|----12-----12-----------------------------|
G|----12-----12-----------------------------|
D|--------12--------------------------------|
A|-10---------------------------------------|
E|------------------------------------------|


11

   Bm9                   A
E|-------7-----------\---0--0---------------|
B|-----0-0----0---0-0----5--5---------------|
G|-----7----7-7-7-7-7\---6--6---------------|
D|---9------9---9---9\---7--7---------------|
A|------------------------------------------|
E|-7---------------------5--5---------------|


12

   G6
E|---------------0-----------0--------------|
B|-3--3----------3---3-------3---3---3----3-|
G|-4--4--------4-----4-----4-----4---4----4-|
D|-5--5------5-----5-----5-----5--------5---|
A|------------------------------------------|
E|-3--3----3-----------3-----------3--------|



D/F#  Bb5-/D  Bm7  E7

D9  G6  Bm11  A  G6

D  G  Bm9  A  G6

Repete o Refrão:

       D/F#
I'm a good man with a good heart
       G
Had a tough time, got a rough start
       Bm7                   A      G
And I finally learned to let it go
         D/F#
Now I'm right here, and I'm right now
        G
And I'm open, knowing somehow
          Bm7             A
That my shadow days are over
 G
My shadow days are over now


Variação da Intro:

1

   D
E|------------------------------------------|
B|-10---------11-------------\--------------|
G|----11-------------11----11\--------------|
D|--------12------------12---\--------------|
A|------------------------------------------|
E|-10------------10----------\--------------|


2

   C9/A
E|---------10-------------------------------|
B|----------------8---\---------------------|
G|-------9-----9-----9\---------------------|
D|---10-10----10----10\---------------------|
A|-0-----------------0\---------------------|
E|------------------------------------------|


3

                 Em7(9)
E|----------------------2-------------------|
B|---------------------------3--------------|
G|-------------------0------------0----0----|
D|-----------------0------0----0----0-------|
A|---x-------5\-----------------------------|
E|-3-3--5/7------0--------------------------|


4

   D
E|------------------------------------------|
B|----------10------------------------------|
G|-------11--------11----11-----------------|
D|----12-------12-----12--------------------|
A|------------------------------------------|
E|-10---------------------------------------|


5

   C9/A
E|---------10-------------\-----------------|
B|----------8------8-----8\-----------------|
G|------9----------9-----9\-----------------|
D|---10--------10-----10--\-----------------|
A|-0----------------------------------------|
E|------------------------------------------|


6

                Em7(9)
E|---------------2---p0---------------------|
B|---------------3--------------------------|
G|---------------0--------------------------|
D|---------------0--------------------------|
A|---x-------5\-----------------------------|
E|-3-3--5/7------0--------------------------|


D  C9  G  Em7(9)  (2x)
48.538 exibições

Comentários 10

  • Eduardo Eduardo: Postado em 25/03/2015 - 17:54

    Cara passei quase um mês pra tocar a música!!

  • dcolvero dcolvero: Postado em 24/03/2015 - 14:18

    Talvez em 2021 eu consiga.

  • playmobs playmobs: Postado em 03/11/2012 15:05

    Musica MUITO BOA, Solos não são tão complicados de pegar, escutem bem a musica na parte dos solos que vcs pegam o tempo certo e o jeito ;)

  • marrcos_ marrcos_: Postado em 12/08/2012 18:15

    videoo aulaa ^^

  • letcosta letcosta: Postado em 19/07/2012 14:18

    Gente, onde tem F# na verdade é F#m. E o refrão, ao meu ver fica D - A/C# - G - G - Bm - A - G - G (2x). ;)

  • natcalchi natcalchi: Postado em 14/07/2012 15:57

    video aula seria bem melhor.

  • paulacoro paulacoro: Postado em 16/05/2012 20:32

    Fica bem melhor assim:
    Bm --------------A--------------- G
    And I finally learned to let it go

  • titoin titoin: Postado em 03/05/2012 12:36

    Niceeeeee

  • reinold reinold: Postado em 05/04/2012 18:27

    oshee, musica facil, só a ultima parte do ultimo solo qe num peguei mt bem

  • gui_fontoura gui_fontoura: Postado em 22/03/2012 23:56

    Seria possivel fazer uma video-aula para explica melhor como tocar?
    Grato.

Composição: Sabe quem é o compositor? Envie pra gente. Contribuição: math510 Correções: gustavofofao , letcosta e mais 3 »
Exibir acordes »
publicidade
fechar