Aí Já Era

Jorge e Mateus

 Jorge e Mateus
Tom: E(acordes na forma do tom D)
Capotraste na 2ª casa		
Intro: C9   D9   A7   C9   D9   Em   C9   D9   A7   C9   D9   C9


E|--0--2--3--5--5/7---5---3--2--2---3-------0--2--3--5--5/7---5---10--7---|
B|-------------------------------------3/5--------------------------------|
G|------------------------------------------------------------------------|
D|------------------------------------------------------------------------|
A|------------------------------------------------------------------------|
E|------------------------------------------------------------------------|


G                     C9
Para pra pensar porque eu ja me toquei
G		     C9
Eu te escolhi você me escolheu eu sei
G                     C9
Ta escancarado vai negar pro coração?
G	      	D9           C9
Que você ta com sintomas de paixão
            Em		D/F#
É quando os olhos se caçam em meio a multidão
          C9			  D
Quando a gente se esbarra andando em qualquer direção
G			       D/F#
Quando indiscretamente a gente vai perdendo o chão
	    C9
Vai ficando bobo, vai ficando bobo...

(refrão)
Em  D/F#  G           D          C9
E ai ja era é hora de se entregar
    D         G               D       C9
O amor não espera só deixa o tempo passar
        D C/D  Bm      B7             Em7
E fica pro coração a missão de avisar
            D       C9            D         (INTROD.)
E o meu ta dando sinal que ta querendo te amar

(riff)

E|----5/7--5--3--|
B|-5-------------|
G|---------------|
D|---------------|
A|---------------|
E|---------------|


(intro)

Comentários 4

  • pascoal2 pascoal2: Postado em 29/11/2013 07:13

    bom dia por que as musicas não estão mais simplificadas um abraço

  • valdivia1010 valdivia1010: Postado em 13/03/2013 17:20

    a v2 uma das melhores e mais faceis

  • camile123 camile123: Postado em 17/09/2012 08:58

    o que é cifra V3?

Composição: Dudu Borges
Esse não é o compositor? Avise-nos.
Contribuição: Andrey2010 Correções: ademardosom , jhk01 e mais 8 »
Exibir acordes »
publicidade
fechar