Amor Não É Jogo de Azar

Jorge e Mateus

 Jorge e Mateus
Tom: F#
		
(intro) F#  F#4  F#  C#  D#m  D#4  D#m  C#/B  C#  F#  F#4  F#


E |---------------------------------------------------------------------------9-----------|
B |----2--4-2-----2-6-6-7-6--------7--7-9-7--7-7-7-6---6--6-6-6--------7-9-7-9^(2)9ν-7----|
G |--3----4-3--2/3-3-------8-6--6/8--8---------------8----------8-6-8--6-8-6--------------|
D |-4-4-----------------------------------------------------------------------------------|
A |---------------------------------------------------------------------------------------|
E |---------------------------------------------------------------------------------------|


F#                      G#m
Tá na hora de você voltar pra mim
    B                          F#
E dar mais uma chance pra nós dois.
F#                          B
Meu bem a gente já se machucou demais
F#            C#          F#  C#
Está na hora de voltar atrás.

F#                            G#m
Melhor deixar falar a voz do coração
    B                     F#
Preciso de você, você de mim
F#                             B
Pra que fazer de conta que já não da mais
F#           C#           F#
Está na hora de voltar atrás

(refrão)
F#                 C#
E a gente ainda se ama
                 D#m
Está na cara, está no ar.
                    C#              B
Fica chorando escondido é tempo perdido
            F#
Amor não é jogo de azar.
F#                 C#
E a gente ainda se ama
                 D#m
Está escrito no coração.
            C#                 B
A nossa pirraça já perdeu a graça
          F#
chega de solidão.

(solo) F# C# B C# F# F#4 F#


E |-------------------------------7------|
B |-----7-7--9-9--7-6-7-9--7--6/8--8h6-7\|
G |-6/8--------------------------------6\|
D |--------------------------------------|
A |--------------------------------------|
E |--------------------------------------|


F#                            G#m
Melhor deixar falar a voz do coração
    B                     F#
Preciso de você, você de mim
F#                             B
Pra que fazer de conta que já não da mais
F#           C#           F#
Está na hora de voltar atrás

(refrão 2x)

(solo final)

B |--7/6-7-9-7--|
G |-----6-6--6--|
643.986 exibições

Comentários 5

Composição: Sabe quem é o compositor? Envie pra gente. Contribuição: erick_miler Correções: Carlão e mais 2 »
Exibir acordes »
publicidade
fechar