É Fogo o Nosso Amor

Jorge e Mateus

 Jorge e Mateus
Tom: G
		
(intro) G D9 Em C


E|-----------------------------7\2----|
B|--8\3----8/10\8----8/10\8----8\3----|
G|---------9/11\9----9/11\8-----------|
D|------------------------------------|
A|------------------------------------|
E|------------------------------------|


G                   D9
Não te quero por um fim de semana
Em             C
Não te quero só por uma noite
G           D9
So quero você so quero se for
Em         C
amor pra vida inteira
G      D9
Eu sei to falando sério
Em               C
baby não estou de brincadeira nao fuja de min
G            D9
quero te prender quero ter você
Em    C
amor pra vida inteira

A|-3-2-0-|

Am              C
Pra que ficar sozinha,

(1ª vez)          (2ª vez)

E|------7--8-7-5--|-------8--7-5-3-5--|
B|----------------|-------------------|
G|--5/7-----------|--7/9--9--7-5-4-5--|
D|----------------|-------------------|
A|----------------|-------------------|
E|----------------|-------------------|


Am                  C                D9
se agora eu te encontrei, te quero meu bem

(refrão)
G           D9      Em               C
É fogo o nosso amor lobo em noite de lua cheia
G       D9         Em      C
Você me enfeitiçou uo uooo
G         D9
É fogo o nosso amor
Em                            C
quando a gente cola o corpo incendeia
G        D9         Em   C
É fogo o nosso amor ou uooo

(intro)

(repete tudo)

(refrão 2x)

(final)

                                                                                 G
E|-------------------------------|-----7\2--------------------------------------3------|
B|-----8\3----8/10\8----8/10\8---|-----8\3----------------------8-----8\5-------3------|
G|------------9/11\9----9/11\9---|-----------------7---7----7h9----9------------0------|
D|-------------------------------|-------------7h9---9----9---------------------0------|
A|-------------------------------|----------------------------------------------2------|
E|-------------------------------|----------------------------------------------3------|
223.573 exibições

Comentários 3

Composição: Sabe quem é o compositor? Envie pra gente. Contribuição: rizzo Correções: ze viola , MaX e mais 4 »
Exibir acordes »
publicidade
fechar