Prisão Sem Grade

Jorge e Mateus

 Jorge e Mateus
Tom: D#(acordes na forma do tom D)
Capotraste na 1ª casa		
Capotraste na 1ª casa	


           Bm
E|-----------------------------------------|
B|---------4-------4-------4-------4-------|
G|------5-------5-------5-------5----------|
D|----5---5---5---5---5---5---5---5--------|  (2x)
A|-----------------------------------------|
E|-----------------------------------------|




           A
E|------------------|
B|------3--3--3--3--|
G|------------------|
D|----3--3--3--3----|
A|---1--1--3--1-----|
E|------------------|


Intro: Bm  A  Em  G  A



E|--------------------------------------------------|
B|--6--4--3-4---4--3--1-3-4/6--4-4-4-4-3-3-1-1------|
G|--------------------------------------------------|
D|--------------------------------------------------|
A|--------------------------------------------------|
E|--------------------------------------------------|


                                           A
Ultimamente já não tenho mais mandado em mim
                                             Em
Foi só você que fez com que eu ficasse assim
                               G
Não há nada que eu possa fazer
                  A
A não ser, me envolver

Bm
Quando o amor invade
                 A
É sempre natural

Bater dentro do peito
                       Em
Um clique fora do normal
                      G       A
E agora só resta deixar acontecer

Refrão:
Bm              A
Você me seduziu, me hipnotizou
Em             G       A
Eu me apaixonei, a cabeça virou
Bm                   A
Eu sigo a minha vida, numa prisão sem grade
Em               G    A          Bm
Eu sigo te amando, e todo mundo sabe
          A      Em              G A
Todo mundo sabe, todo mundo sabe

Bm
Quando o amor invade
                 A
É sempre natural

Bater dentro do peito
                       Em
Um clique fora do normal
                      G        A
E agora só resta deixar acontecer

Refrão:(2X)
Bm              A
Você me seduziu, me hipnotizou
Bm             G      A
Eu me apaixonei, a cabeça virou
Bm                   A                  Em G A
Eu sigo a minha vida, numa prisão sem grade
 Bm
E todo mundo sabe
          A     Em              G A
Todo mundo sabe, todo mundo sabe

Bm  A  Em  G  A (2x)

Solo final:

E|------------------------|
B|---------4-------4------|
G|------5-------5---------|
D|----5---5---5---5-------|
A|------------------------|
E|------------------------|
225.980 exibições

Comentários 25

  • joaopedro.santanaliberaltino joaopedro.santanaliberaltino: Postado em 26/04/2014 09:25

    Um ritmo mais fácil de tocar e que eu uso é ( B B CC B)

  • Joice Joice: Postado em 18/05/2013 10:52

    VIIDEO AAAAULAAA ;c

  • allisinho allisinho: Postado em 08/02/2013 19:30

    Galerinha pra facilitar ai pra você so colocar o capo na primeira casa belezinha (Y :D

  • luizescolare luizescolare: Postado em 03/01/2013 17:06

    vey tocam do jeito que tar que fica melhor ,se vcs tiverem dificuldade, vai aki em cima dos coment nos quadro de notas e trocam o acorde

  • wellington99 wellington99: Postado em 31/12/2012 12:37

    Dica: colocar Capo na 1º

    Ficaria assim:

    Ab -- G
    Bb -- A
    Cm - Bm
    Fm - Em

    • ezequiel ezequiel: Postado em 20/07/2014 21:51

      fica parecido??? responde por favor

  • Diih Diih: Postado em 09/10/2012 13:30

    Pra que capo? se todas as notas tem pestana.. AFF

    • kelvin kelvin: Postado em 29/03/2013 11:07

      Comentário removido

    • kelvin kelvin: Postado em 29/03/2013 11:19

      com o capo fica bem mais facil o ze mene

  • thiago.sky thiago.sky: Postado em 05/10/2012 22:30

    ↓ ↑ ↓↑↓↑↓↑ ....tentam fazer o mas rapido pra ficar igual a musica ...é so ve o cara tocando e ve a vellocidade ki ele toca!! *-_-*

Exibindo 10 de 25 comentários Mostrar mais ver todos »
Composição: Maiara & Maraísa
Esse não é o compositor? Avise-nos.
Contribuição: bryanvoltani Correções: ferreira , vinicius e mais 8 »
Exibir acordes »
publicidade
fechar