Jorge e Mateus

Querendo Te Amar

8.446 exibições
Tom: A
Solo:

E|----------------------------------------------|
B|----------------------------------------------|
G|-/6-6-6-6-6-6-6-6-6/4-4-4-4-4-4-4-4-4/2-2-2---|
D|----------------------------------------------|
A|----------------------------------------------|
E|----------------------------------------------|


E|------------------------------|
B|------------------------------|
G|-4-2-4/5-5-4-2----------------|
D|----------------5-3-2~--------|
A|------------------------------|
E|------------------------------|


E|----------------------------------------------|
B|----------------------------------------------|
G|-/6-6-6-6-6-6-6-6-6/4-4-4-4-4-4-4-4-4/2-2-2---|
D|----------------------------------------------|
A|----------------------------------------------|
E|----------------------------------------------|


E|------------------------------|
B|------------------/10~--------|
G|-4-2-4/5-5-4-2----------------|
D|------------------------------|
A|------------------------------|
E|------------------------------|


A	          B
Vê se larga de besteira
	        D
Tô aqui dando bobeira
   Dm	     A
Querendo te amar
	                 B
E já faz tempo que eu te quero
	                   D
Há tanto tempo que eu te espero
      Dm	          A
Vê se pára pra pensar
	               B
Tô com saudade do teu cheiro
	            D
E desse seu cabelo preto
         Dm          A
Se espalhando sobre mim
	          B
Sua boca pedindo beijo
	           D
E aumentando meu desejo
      Dm           F#m
Não demora, vem pra mim
	B
Quando você chegar
	D	  E
Vai se perder no meu olhar

A	             E               F#m
Eu sei de tudo que se passa nessa sua vida
	             D	             A
Eu sei que assim como eu você não está feliz
	                  	  E                 F#m
Eu sei que às vezes pensa em mim quando está sozinha
	              D	           F#m
E isso prova que esse amor tá criando raiz
	             B	               D
Em todo caso perde o medo de curtir essa paixão
Bm              C#m        D        E       A
Que entra pela porta da frente do meu coração

Repete tudo       B    D

Bm	       C#m        D        E       D Dm A E A
Que entra pela porta da frente do meu coração
    Composição: Joh Nunes / Jorge BarcelosColaboração e revisão:
    • deco512
    • kinha

    Comentários 1

    140 .
    140 cancelar

    conseguiu tocar?

    samuel camara santos17.641 visualizações
      ver covers de outras músicas »
      0:00 / 0:00

      Capítulos

        1 versão de gaita exibições contribuição e correção
        play/pausefechar subir/descer velocidade
        6ª corda E5ª corda A4ª corda D3ª corda G2ª corda B1ª corda E
          acordes
          publicidad
          fechar
          ok