Voa Beija-flor

Jorge e Mateus

 Jorge e Mateus Compositor: Euller Coelho
Tom: A
		
(Intro Solo)

1° Parte:

    A                                      E      Bm
E|------------------------------------------------------------------|
B|------------------------------------------------------------------|
G|---------6--------------6-----11-11-11-9---7--7-6-----------------|
D|-7-7-9-9---9-7--7-7-9-9---9-7------------9--------9-6-7-----------|
A|------------------------------------------------------------------|
E|------------------------------------------------------------------|


                                                                                                                  D              E
E|------------------------------------------------------------------|
B|------------------------------------------------------------------|
G|-7-6-----------6-6--7-6-------------------------------------------|
D|-----9-6-7-6-7----------9-----------------------------------------|
A|------------------------------------------------------------------|
E|------------------------------------------------------------------|


2°Parte:

         A                                     E
E|------------------------------------------------------------------|
B|------------------------------------------------------------------|
G|---------------6--------------6-----11-11-11-9---7----------------|
D|-----6-7-7-9-9---9-7--7-7-9-9---9-7------------9------------------|
A|-7-9--------------------------------------------------------------|
E|------------------------------------------------------------------|



   Bm                 D D  E E        A
E|------------------------------------------------------------------|
B|------------------------------------------------------------------|
G|-7-6--------------------------------------------------------------|
D|-----9-6-7-7-4-7-7--7-7--9-9------6-7-----------------------------|
A|--------------------5-5--7-7--7-9---------------------------------|
E|------------------------------------------------------------------|

Comentários 0

Composição: Euller Coelho
Esse não é o compositor? Avise-nos.
Contribuição: Daniel Moser Correções: jiz »
Exibir acordes »
publicidade
fechar