Homem Aranha

Jorge Vercillo

 Jorge Vercillo
Jorge Vercilo - Homem Aranha

Introdução
G|----------------------------------------------------------|
D|----------------------------------------------------------|
A|--------------3--5--x-5-x-5----3--x-3-x-3-----------------|
E|--1--x-1-x-1-----------------5------------3-5--x-5-x-5-3--|

G|------------------------------------------------------------------------------|
D|----------------------------------2-x-2---------------------------------------|
A|--------------3--5--x-5-x-5----3---------2-1------------------------3-5----1--|
E|--1--x-1-x-1-----------------5----------------5-x-5-3--1--x-1-x-1-------------|


Versos
G|-----------------------------------------------|
D|-----------------------------------------------|
A|-----------------------------------------------|
E|--5-5--x-5-5---3-3--x-3-3---1-1--x-1-1--4---6--|

G|-----------------------------------------------|
D|-----------------------------------------------|
A|-----------------------------------------------|
E|--5-5--x-5-5---3-3--x-3-3---1-1--x-1-1--0---6--|

G|-----------------------------------------------|
D|-----------------------------------------------|
A|-----------------------------------------------|
E|--5-5--x-5-5---3-3--x-3-3---1-1--x-1-1--4---6--|

G|-----------------------------------------------------------------------------|
D|-----------------------------------------------------------------7-7-5-------|
A|-------7--x-7--3--5--x-5-6--5---7--x-7--3--5--x-5---8-7--x-8--6---------7-5--|
E|-----------------------------------------------------------------------------|


Refrão

G|----------------------------------------------------------|
D|----------------------------------------------------------|
A|--------------3--5--x-5-x-5----3--x-3-x-3-----------------|
E|--1--x-1-x-1-----------------5------------3-5--x-5-x-5-3--|

G|----------------------------------------------------------|
D|----------------------------------2-x-2-------------------|
A|--------------3--5--x-5-x-5----3---------2-1--------------|
E|--1--x-1-x-1-----------------5----------------5-x-5-3--1--|

G|-----------------------------------------------------------------------------|
D|-----------------------------------------------------------------------------|
A|--------------3--5--x-5-x-5----3--x-3-x-3--------------------------3-5----1--|
E|--1--x-1-x-1-----------------5------------3-5--x-5-x-5-3--x-1-x-1------------|


A partir daqui, a música repete os mesmos riffs!
Preste atenção onde encaixa cada um e bom estudo!!!
Jovens !! Essas Riffs também foi o meu brother Gasparzinho que fez !! ficou jóia !!
Um grande Beijo para o meu Filho Pedro Henrique vai ser um grande baixista e outro
beijão para minha esposa Camila amos vc’s 
Abraços para todos !
victorhugomad@hotmail.com
Tonico 


_______________________________________________________
Contribuição: Wellington Madeira(victorhugomad@hotmail.com)

Comentários 0

Composição: M.Strange / Peter-John Vettese
Esse não é o compositor? Avise-nos.
Consegui tocarAinda não conseguiram tocar essa música. Seja o primeiro!
    Não consegui tocar
    publicidade
    fechar