Amor Maior

Jota Quest

 Jota Quest
Tom: C
		
Bb9         A      Dm      Cm                  Bb9   *ver no fim da cifra*
  Eu quero ficar só, mas comigo só eu não consigo
           A          Dm     Cm                Bb9  
  Eu quero ficar junto, mas sozinho só não é possível
       A          Dm        Cm              Bb9
  É preciso amar direito, um amor de qualquer jeito
       A                 Dm      Cm
  Ser amor a qualquer hora, ser amor de corpo inteiro
G                    Bb9     C                F 
  Amor de dentro pra fora, amor que eu desconheço

F           Am        Dm              G  Bb9
  Quero um amor maior, amor maior que eu
F           Am        Dm                 G  Bb9
  Quero um amor maior, um amor maior que eu

Bb9         A       Dm      Cm                  Bb9
  Eu quero ficar só, mas comigo só eu não consigo
           A          Dm      Cm                      Bb9
  Eu quero ficar junto, mas sozinho assim não é possível
       A            Dm        Cm                Bb9 
  É preciso amar direito, um amor de qualquer jeito
       A                 Dm      Cm                     
  Ser amor a qualquer hora, ser amor de corpo inteiro
G                    Bb9     C                F
  Amor de dentro pra fora, amor que eu desconheço

F           Am        Dm              G  Bb9
  Quero um amor maior, amor maior que eu
F           Am        Dm                 G  Bb9
  Quero um amor maior, um amor maior que eu

Bb9           A              Dm          Cm               Bb9
  Então seguirei meu coração, até o fim, pra saber se é amor
       A            Dm               Cm                   Bb9
  Magoarei mesmo assim, mesmo sem querer, pra saber se é amor
         A           Dm            Cm
  Eu estarei mais feliz mesmo morrendo de dor
G       Bb9        C           F
  Pra saber se é amor, se é amor

F           Am        Dm              G  Bb9
  Quero um amor maior, amor maior que eu
F           Am        Dm                 G  
  Quero um amor maior, um amor maior que eu

SOLO POR LEONARDO MONTEIRO DA SILVA 

O acompanhamento do solo é esse(F,Am,Dm,G,Bb9)
E|--------------------------------------------------------------------------|
B|------------------------------------6-----------6--8---8--8---6--8--8-6--8|
G|---------5-----7-5--7------5--5--7-----7----------------------------------|
D|-3-3-5-7---7--------------------------------------------------------------|
A|--------------------------------------------------------------------------|
E|--------------------------------------------------------------------------|
              4x


E|-------------------------------------------------------17----------13--15-|
B|--8-6---8--8--6---8--8------6------13--13--13--13--15------13-15----------|
G|------------|-------------------------------------------------------------|
D|------------|-------------------------------------------------------------|
A|------------|-------------------------------------------------------------|
E|------------|-------------------------------------------------------------|



E|-15-15-15---15-13--15-13-12-13-----10-13-----10----------------------------------|
B|--------------------------------10-------10------13-10-13---------13----13-----10|
G|------------------------------------------------------------12-12----12----12----|
D|---------------------------------------------------------------------------------|
A|---------------------------------------------------------------------------------|
E|---------------------------------------------------------------------------------|


*Aí galera vou passar um dedilhado que fica identico ao teclado usado na musica,é só pegar
a manha e tocar junto c a musica e vai parecer que vc esta usando um teclado ao invez de
um violao/guitarra,qualquer duvida me mandem um e-mail,ai vai:
Dividi por tempos:ex:1,2,3,etc...

                         1 2 3  4
                         P I M* I
                             A*
*puxar as cordas com os dedos medio e anular juntos*
Texto Colunas
Alterar tom ½ tom ½ tom
afinação acordes na letra esconder tabs mais »

Comentários 27

  • Lucas Lucas: Postado em 23/05/2014 02:48

    Galera o tom dessa música do jeito que ela esta cifrada é Fá e não Dó.

  • Tulio.Cesar.Nunes Tulio.Cesar.Nunes: Postado em 03/02/2014 12:31

    Mude o tom para D e tenha sua simplificada ué

  • Tulio.Cesar.Nunes Tulio.Cesar.Nunes: Postado em 03/02/2014 00:24

    facil dimais

  • thierry.nascimento.9 thierry.nascimento.9: Postado em 25/11/2013 13:27

    faz por favor a simplificada dela

    • fodastico99 fodastico99: Postado em 06/05/2014 14:15

      mais simples que isso? só tira o solo cara

  • Matheus Matheus : Postado em 10/09/2013 14:47

    esse kra sempre usa o msm ritimo huehuehueuehuehu

  • Gabriel Marques Gabriel Marques: Postado em 24/02/2013 16:59

    Po cara C ensina mt rapido pô mais calma da proxima

  • girl_guitar girl_guitar: Postado em 04/12/2012 00:20

    linda essa musica e muito facil de tocar!!!!!!!!!Amooo Jota Quest:)

  • alex.slash alex.slash: Postado em 02/12/2012 15:13

    esse solo do LEONARDO MONTEIRO DA SILVA nao da certo com a musica

    • Eduardo Eduardo : Postado em 18/03/2013 16:27

      Pior que é verdade...

Exibindo 10 de 27 comentários Mostrar mais ver todos »
Composição: Rogério Flausino
Esse não é o compositor? Avise-nos.
Contribuição: dudo Correções: Floyd M e mais 1 »
  1. Domingo de Manhã - Marcos e Belutti Manteve-se 101.169 exibições
  2. Maus Bocados - Cristiano Araújo Manteve-se 44.081 exibições
  3. Logo Eu - Jorge e Mateus Manteve-se 42.375 exibições
  4. Recaídas - Henrique e Juliano Manteve-se 41.886 exibições
  5. Pra Você - Onze:20 Manteve-se 39.291 exibições
  6. Não Vai Voltar - Onze:20 Manteve-se 37.554 exibições
  7. Mulher - Projota Manteve-se 30.526 exibições
  8. Só Os Loucos Sabem - Charlie Brown Jr. Manteve-se 30.412 exibições
  9. Calma - Jorge e Mateus Manteve-se 27.299 exibições
  10. Pais e Filhos - Legião Urbana Manteve-se 26.600 exibições
  1. Jorge e Mateus- Manteve-se 283.219 exibições
  2. Legião Urbana- Manteve-se 208.795 exibições
  3. Charlie Brown Jr.- Manteve-se 146.863 exibições
  4. Marcos e Belutti- Manteve-se 124.938 exibições
  5. Fernandinho- Manteve-se 118.407 exibições
  6. Henrique e Juliano- Manteve-se 108.631 exibições
  7. Bruno e Marrone- Manteve-se 102.778 exibições
  8. Onze:20- Manteve-se 98.764 exibições
  9. Luan Santana- Manteve-se 92.109 exibições
  10. Thalles Roberto- Manteve-se 89.741 exibições
Exibir acordes »

Cifras e tabs

Fórum Cifra Club

Aprenda

Cifra Club News

Mais Serviços Cifra Club ID

Studio Sol

©1996 - 2014 Cifra Club · o primeiro, maior e mais acessado do Brasil · 335 mil músicas · 6.1 milhões pessoas cadastradas

publicidade
fechar