Dias Melhores

Jota Quest

 Jota Quest
C „³ Chimbals/Hi-Hat   x „³ normal X „³ Crash  o „³ open/close high-hat
S „³ Snare   g „³ ghost notes c „³ metal
B „³ Bass 

C |x-x-x-x-x-x-x-x-|x-x-x-x-x-x-x-x-|x-x-x-x-x-x-x-x-|x-x-x-x-x-x-x-x-| 
S |----o--g-g--o---|----o--g-g--o---|----o--g-g--o---|----o--g-g--o---| 
B |0-0-----0-0-----|0-0-----0-0-----|0-0-----0-0-----|0-0-----0-0-----|

C |x-x-x-x-x-x-x-x-|x-x-x-x-x-x-x-x-|x-x-x-x-x-x-x-x-|x-x-x-x-x-x-x-x-| 
S |----o--g-g--o---|----o--g-g--o---|----o--g-g--o---|----o--g-g--o---| 
B |0-0-----0-0-----|0-0-----0-0-----|0-0-----0-0-----|0-0-----0-0-----|

C |x-x-x-x-x-x-x-x-|x-x-x-x-x-x-x-x-|x-x-x-x-x-x-x-x-|x-x-x-x-x-x-x-x-| 
S |----o--g-g--o---|----o--g-g--o---|----o--g-g--o---|----o--g-g--o---| 
B |0-0-----0-0-----|0-0-----0-0-----|0-0-----0-0-----|0-0-----0-0-----|

                                                                                (começa a canta)  
C |x-x-x-x-x-x-x-x-|x-x-x-x-x-x-x-x-|x-x-x-x-x-x-x-x-|x-x-x-x-x-x-x-x-| 
S |----o--g-g--o---|----o--g-g--o---|----o--g-g--o---|----o--g-g--o---|
B |0-0-----0-0-----|0-0-----0-0-----|0-0-----0-0-----|0-0-----0-0-----|

C |x-x-x-x-x-x-x-x-|x-x-x-x-x-x-x-x-|x-x-x-x-x-x-x-x-|x-x-x-x-x-x-x-x-| 
S |----o--g-g--o---|----o--g-g--o---|----o--g-g--o---|----o--g-g--o---|  
B |0-0-----0-0-----|0-0-----0-0-----|0-0-----0-0-----|0-0-----0-0-----|

C |x-x-x-x-x-x-x-x-|x-x-x-x-x-x-x-x-|x-x-x-x-x-x-x-x-|x-x-x-x-x-x-x-x-| 
S |----o--g-g--o---|----o--g-g--o---|----o--g-g--o---|----o--g-g--o---|
B |0-0-----0-0-----|0-0-----0-0-----|0-0-----0-0-----|0-0-----0-0-----|

                                                   
A |----------------|----------------|X---------------|----------------|
C |x-x-x-x-x-x-x-x-|x-x-x-x-x-x-x-x-|--x-x-x-x-x-x-x-|x-x-x-x-x-x-x-x-| 
S |----o--g-g--o---|----o--g-g--o---|----o--g-g--o---|----o--g-g--o---|  
B |0-0-----0-0-----|0-0-----0-0-----|0-0-----0-0-----|0-0-----0-0-----|

C |x-x-x-x-x-x-x-x-|x-x-x-x-x-x-x-x-|x-x-x-x-x-x-x-x-|x-x-x-x-x-x-x-x-| 
S |----o--g-g--o---|----o--g-g--o---|----o--g-g--o---|----o--g-g--o---|
B |0-0-----0-0-----|0-0-----0-0-----|0-0-----0-0-----|0-0-----0-0-----|

C |x-x-x-x-x-x-x-x-|x-x-x-x-x-x-x-x-|x-x-x-x-x-x-x-x-|x-x-x-x-x-x-x-x-| 
S |----o--g-g--o---|----o--g-g--o---|----o--g-g--o---|----o--g-g--o---|  
B |0-0-----0-0-----|0-0-----0-0-----|0-0-----0-0-----|0-0-----0-0-----|

A |----------------|----------------|X---------------|----------------|
C |x-x-x-x-x-x-x-x-|x-x-x-x---------|--x-x-x-x-x-x-x-|x-x-x-x-x-x-x-x-| 
S |----o--g-g--o---|----o---oo--o-oo|----o--g-g--o---|----o--g-g--o---| 
B |0-0-----0-0-----|0-0-------0-----|0-0-----0-0-----|0-0-----0-0-----|

C |x-x-x-x-x-x-x-x-|x-x-x-x-x-x-x-x-|x-x-x-x-x-x-x-x-|x-x-x-x-x-x-x-x-| 
S |----o--g-g--o---|----o--g-g--o---|----o--g-g--o---|----o--g-g--o---|
B |0-0-----0-0-----|0-0-----0-0-----|0-0-----0-0-----|0-0-----0-0-----|

A |----------------|----------------|X---------------|----------------|
C |x-x-x-x-x-x-x-x-|x-x-x-x-x-x-x-x-|--x-x-x-x-x-x-x-|x-x-x-x-x-x-x-x-| 
S |----o--g-g--o---|----o--g-g--o---|----o--g-g--o---|----o--g-g--o---|  
B |0-0-----0-0-----|0-0-----0-0-----|0-0-----0-0-----|0-0-----0-0-----|



A |X---------------|----------------|----------------|----------------|
C |x-x-x-x-x-x-x-x-|x-x-x-x-x-x-x-x-|x-x-x-x-x-x-x-x-|x-x-x-x-x-x-x-x-| 
S |----o--g-g--o---|----o--g-g--o---|----o--g-g--o---|----o--g-g--o---|  
B |0-0-----0-0-----|0-0-----0-0-----|0-0-----0-0-----|0-0-----0-0-----|

A |----------------|----------------|X---------------|----------------|
C |x-x-x-x-x-x-x-x-|x-x-x-x-x-x-x-x-|--x-x-x-x-x-x-x-|x-x-x-x-x-x-x-x-| 
S |----o--g-g--o---|----o--g-g--o---|----c--g-g--c---|----c--g-g--c---| 
B |0-0-----0-0-----|0-0-----0-0-----|0-0-----0-0-----|0-0-----0-0-----|

C |x-x-x-x-x-x-x-x-|x-x-x-x-x-x-x-x-|x-x-x-x-x-x-x-x-|x-x-x-x-x-x-x-x-|
S |----c--c-c--c---|----c--c-c--c---|----c--c-c--c---|----c--c-c--c---|
B |0-0-----0-0-----|0-0-----0-0-----|0-0-----0-0-----|0-0-----0-0-----|

A |----------------|----------------|X---------------|----------------|
C |x-x-x-x-x-x-x-x-|x-x-x-x-x-x-x-x-|--x-x-x-x-x-x-x-|x-x-x-x-x-x-x-x-|
S |----c--c-c--c---|----c--c-c--0-0-|----o--o-o--o---|----o--o-o--o---|
B |0-0-----0-0-----|0-0-----0-0-----|0-0-----0-0-----|0-0-----0-0-----|

C |x-x-x-x-x-x-x-x-|x-x-x-x-x-x-x-x-|x-x-x-x-x-x-x-x-|x-x-x-x-x-x-x-x-| 
S |----o--o-o--o---|----o--o-o--o---|----o--o-o--o---|----o--o-o--o---| 
B |0-0-----0-0-----|0-0-----0-0-----|0-0-----0-0-----|0-0-----0-0-----|
	
A |----------------|----------------|X---------------|----------------|
C |x-x-x-x-x-x-x-x-|x-x-x-x-x-x-x-x-|--x-x-x-x-x-x-x-|x-x-x-x-x-x-x-x-|
S |----c--c-c--c---|----c--c-c--c---|----c--c-c--c---|----c--c-c--c---|
B |0-0-----0-0-----|0-0-----0-0-----|0-0-----0-0-----|0-0-----0-0-----|

A |----------------|----------------|X---------------|----------------|
C |x-x-x-x-x-x-x-x-|x-x-x-x-x-x-o-o-|--x-x-x-x-x-x-x-|x-x-x-x-x-x-x-x-|
S |----c--c-c--c---|----c--c-c--0-0-|----o--g-g--o---|----o--g-g--o---|
B |0-0-----0-0-----|0-0-----0-0-----|0-0-----0-0-----|0-0-----0-0-----|

C |x-x-x-x-x-x-x-x-|x-x-x-x-x-x-x-x-|x-x-x-x-x-x-x-x-|x-x-x-x-x-x-x-x-| 
S |----o--g-g--o---|----o--g-g--o---|----o--g-g--o---|----o--g-g--o---|  
B |0-0-----0-0-----|0-0-----0-0-----|0-0-----0-0-----|0-0-----0-0-----|

A |----------------|----------------|X---------------|----------------|
C |x-x-x-x-x-x-x-x-|x-x-x-x-x-x-x-x-|--x-x-x-x-x-x-x-|x-x-x-x-x-x-x-x-|
S |----c--c-c--c---|----c--c-c--0-0-|----o--g-g--o---|----o--g-g--o---|
B |0-0-----0-0-----|0-0-----0-0-----|0-0-----0-0-----|0-0-----0-0-----|

A |----------------|----------------|X---------------|----------------|
C |x-x-x-x-x-x-x-x-|x-x-x-x---------|--x-x-x-x-x-x-x-|x-x-x-x-x-x-x-x-| 
S |----o--g-g--o---|----o---oo--o-oo|----o--g-g--o---|----o--g-g--o---| 
B |0-0-----0-0-----|0-0-------0-----|0-0-----0-0-----|0-0-----0-0-----|

C |x-x-x-x-x-x-x-x-|x-x-x-x-x-x-x-x-|x-x-x-x-x-x-x-x-|x-x-x-x-x-x-x-x-| 
S |----o--g-g--o---|----o--g-g--o---|----o--g-g--o---|----o--g-g--o---|  
B |0-0-----0-0-----|0-0-----0-0-----|0-0-----0-0-----|0-0-----0-0-----|

A |X---------------|----------------|X---------------|----------------|
C |x-x-x-x-x-x-x-x-|x-x-x-x-x-x-x-x-|--x-x-x-x-x-x-x-|x-x-x-x-x-x-x-x-| 
S |----c--c-c--c---|----c--c-c--c---|----o--g-g--o---|----o--g-g--o---| 
B |0-0-----0-0-----|0-0-----0-0-----|0-0-----0-0-----|0-0-----0-0-----|
A |----------------|----------------|X---------------|----------------|
C |x-x-x-x-x-x-x-x-|x-x-x-x-x-x-x-x-|--x-x-x-x-x-x-x-|x-x-x-x-x-x-x-x-| 
S |----o--g-g--o---|----o--g-g--o---|----o--g-g--o---|----o--g-g--o---|  
B |0-0-----0-0-----|0-0-----0-0-----|0-0-----0-0-----|0-0-----0-0-----|

A |----------------|----------------|X---------------|----------------|
C |x-x-x-x-x-x-x-x-|x-x-x-x-x-x-x-x-|--x-x-x-x-x-x-x-|x-x-x-x-x-x-x-x-| 
S |----o--g-g--o---|----o--g-g--o---|----o--g-g--o---|----o--g-g--o---|
B |0-0-----0-0-----|0-0-----0-0-----|0-0-----0-0-----|0-0-----0-0-----|

C |x-x-x-x-x-x-x-x-|x-x-x-x-x-x-x-x-|x-x-x-x-x-x-x-x-|x-x-x-x-x-x-x-x-| 
S |----o--g-g--o---|----o--g-g--o---|----o--g-g--o---|----o--g-g--o---|  
B |0-0-----0-0-----|0-0-----0-0-----|0-0-----0-0-----|0-0-----0-0-----|

A |X---------------|----------------|----------------|----------------|
C |--x-x-x-x-x-x-x-|x-x-x-x-x-x-x-x-|x-x-x-x-x-x-x-x-|x-x-x-x-x-x-x-x-|
S |----c--g-g--c---|----c--g-g--c---|----c--g-g--c---|----c--g-g--c---|
B |0-0-----0-0-----|0-0-----0-0-----|0-0-----0-0-----|0-0-----0-0-----|

C |x-x-x-x-x-x-x-x-|x-x-x-x-x-x-x-x-|x-x-x-x-x-x-x-x-|x-x-x-x-x-x-x-x-|
S |----c--g-g--c---|----c--g-g--c---|----c--g-g--c---|----c--g-g--c---|
B |0-0-----0-0-----|0-0-----0-0-----|0-0-----0-0-----|0-0-----0-0-----|

C |x-x-x-x-x-x-x-x-|x-x-x-x-x-x-x-x-|x-x-x-x-x-x-x-x-|x-x-x-x-x-x-x-x-|
S |----c--g-g--c---|----c--g-g--c---|----c--g-g--c---|----c--g-g--c---|
B |0-0-----0-0-----|0-0-----0-0-----|0-0-----0-0-----|0-0-----0-0-----|

Comentários 0

Composição: Rogério Flausino
Esse não é o compositor? Avise-nos.
Contribuição: betolong
Consegui tocarAinda não conseguiram tocar essa música. Seja o primeiro!
    Não consegui tocar
    publicidade
    fechar