Já Foi

Jota Quest

 Jota Quest
Tom: D
		
(solo 1)


E |-----------------------------------------|
B |-----------------------------------------|
G |---------7-9~~p7-----7-9~p7-----7--------|
D |-9-9-9-9---------9----------9-----9-7----|
A |-----------------------------------------|
E |-----------------------------------------|


(riff 2 -  acompanha a música ao fundo
(repete várias vezes até o início do refrão)


E |---------------------------------------------|
B |---------------------------------------------|
G |------------------------------------7--------|
D |---9--9-9--7--9~-7-------7--9--9-9-----9~-7--|
A |-------------------9---9---------------------|
E |---------------------------------------------|


(riff 3 - antes de iniciar o refrão)

E |--------------------------------
B |---9b---------------------------
G |---9b------7---9---7------------
D |-----------------------9--------
A |--------------------------------
E |--------------------------------



E |------------------------------|
B |------7-------7-------7-------|(riff do refrão q se repete tbm em
G |------7--9~---7--9~---7-------|varias partes da musica....o riff
D |--9~--7--9~---7--9~---7--9~---|mais visualizado da musica)
A |--9~---------------------9~---|
E |------------------------------|


(intro) B   D6/E Em  D6/E Em  D6/E B

(riff 4) (principal)
(acordes, feitos apenas nas 4 cordas debaixo)

E |-7--7-7-7-7-7-7--|
B |-7--7-8-7-8-8-7--|
G |-8--7-7-7-7-7-8--|
D |-9--7-9-7-9-9-9--|
A |-----------------|
E |-----------------|


Ahhhh ahhhh ahhh
Ahhhh ahhhh ahhh

   B                       Em7
Eu sempre quis fazer você feliz
                              B
Às vezes me deixava pra outra hora
                                 Em7
Eu sempre quis falar o que eu sentia
Mas dessa vez foi o silêncio
              B
Que falou por mim
                           Em7
Eu sempre me esforcei pra te incentivar
                          B
Tua falta de caminho me detinha a intenção
                             Em7
Eu sempre te deixei bem à vontade
Mas tua falta de vontade
           B
Me desmotivou

        B
Quer saber?
D6/E Em
Já foi
D6/E Em
Vou cuidar
Em B
De mim
  B
Quer saber?
      D6/E  Em
Eu quero alguém pra dividir
D6/E   Em              Em  B
   gostar de quem gosta de mim

    B                           Em7
Eu sempre acreditei muito em nós dois
                             B
Primeiro em você, depois em mim... éramos nós
                             Em7
Eu sempre quis fazer a minha parte
Mas você não faz mais parte
                  B
Da metade de nós dois

(refrão 2x)

A  G A G A G A B7
(riff 5 (adaptado do teclado)


E |---17-15--------15-17-15--|
B |-15--15-------15----------|
G |--------------------------|
D |--------------------------|
A |--------------------------|
E |--------------------------|


(falado)

(B   D6/E Em  D6/E Em  D6/E  B)
yeah...
E quanto vale o tempo todo que vivemos
Correndo atrás dos sonhos
Pra viver só de amor
E quanto a gente paga pelos sonhos que deixou?

(refrão 4x)
Texto Colunas
Alterar tom ½ tom ½ tom
afinação acordes na letra esconder tabs mais »

Comentários (1)

  • Louizy Louizy: Postado em 10/07/2013 12:27

    Vídeo aula!! :'(

Composição: Caetano Veloso / Jota Quest
Esse não é o compositor? Avise-nos.
Contribuição: l.arthur.pires Correções: Alex Fernando , nato*mertins e mais 2 »
  1. Tudo Que Você Quiser - Luan Santana Manteve-se 4.902 exibições
  2. Lepo Lepo - Psirico Manteve-se 3.570 exibições
  3. Mozão - Lucas Lucco Manteve-se 3.423 exibições
  4. Logo Eu - Jorge e Mateus Manteve-se 3.029 exibições
  5. Gaveta - Fernando e Sorocaba Manteve-se 2.722 exibições
  6. Só Os Loucos Sabem - Charlie Brown Jr. Manteve-se 2.470 exibições
  7. Pra Você - Onze:20 Manteve-se 2.088 exibições
  8. Tempo Perdido - Legião Urbana Manteve-se 1.989 exibições
  9. Fui Fiel - Gusttavo Lima Manteve-se 1.760 exibições
  10. Na Linha do Tempo - Victor e Leo Manteve-se 1.759 exibições
  1. Jorge e Mateus- Manteve-se 18.170 exibições
  2. Legião Urbana- Manteve-se 16.306 exibições
  3. Luan Santana- Manteve-se 14.644 exibições
  4. Charlie Brown Jr.- Manteve-se 14.217 exibições
  5. Fernandinho- Manteve-se 12.391 exibições
  6. Thalles Roberto- Manteve-se 9.162 exibições
  7. Aline Barros- Manteve-se 9.064 exibições
  8. Católicas- Manteve-se 8.769 exibições
  9. Victor e Leo- Manteve-se 8.687 exibições
  10. Bruno e Marrone- Manteve-se 8.333 exibições
Exibir acordes »

Cifras e tabs

Fórum Cifra Club

Aprenda

Cifra Club News

Mais Serviços Cifra Club ID

Studio Sol

©1996 - 2014 Cifra Club · o primeiro, maior e mais acessado do Brasil · 329 mil músicas · 5.9 milhões pessoas cadastradas

publicidade
fechar