O Sol

Jota Quest

 Jota Quest
Tom: D
		
Introdução:(A E G D)

Toca junto com a introdução:

e|-----------------------------------------|
B|-----------------5-7-5-------------------|
G|-----2-4-2--4-6---------4-6-7--7-6-4-2---|  2x
D|-2-4-----------------------------------4-|
A|-----------------------------------------|
E|-----------------------------------------|


Canto:

A
Ei dor,
       E
eu não te escuto mais
G                       D
você não me leva a nada.
A
Ei medo,
       E
eu não te escuto mais
G                       D
você não me leva a nada.

Refrão 2x:

A                    E
E se quiser saber pra onde eu vou
   D 
Pra onde tenha sol
A
É pra lá que eu vou

Introdução:(A E G D)

Toca junto com a introdução:

e|-----------------------------------------|
B|-----------------5-7-5-------------------|
G|-----2-4-2--4-6---------4-6-7--7-6-4-2---|
D|-2-4-----------------------------------4-|
A|-----------------------------------------|
E|-----------------------------------------|


Canto:

A
Ei dor,
       E            
eu não te escuto mais
G                       D
você não me leva a nada.
A
Ei medo,
       E
eu não te escuto mais
G                       D
você não me leva a nada.

Refrão 2x:

A                    E
E se quiser saber pra onde eu vou
   D 
Pra onde tenha sol
A
É pra lá que eu vou


Toca junto com o solo do fim: (A E G D)
e|---------------------------|
B|-2---2-------2-------2-----|
G|-------4-2-4-----4-4---4-2-|
D|---------------------------|
A|---------------------------|
E|---------------------------|


RIFF's

Toca-se junto com o canto:

e|---------------------------------------|
B|-2-2---2--------------3---3-2-3-2-3----|
G|---------4-2-4----------------------2--|
D|---------------4-2---2-----------------|
A|---------------------------------------|
E|---------------------------------------|


Toca-se junto com o refrão:

e|--------------------------------------------------|
B|-2-2-2-2---------2------3-2-3-2-----2-----2-------|
G|---------2-2-2-4---4------------2------4-----4--2-|
D|----------------------4---------------------------|
A|--------------------------------------------------|
E|--------------------------------------------------|

Comentários 1

  • geissy geissy: Postado em 29/01/2014 20:05

    Estou quase conseguindo, aprendiz aqui!

Composição: Antônio Julio Nastácia
Esse não é o compositor? Avise-nos.
Contribuição: piovan
Exibir acordes »
publicidade
fechar