Don't Stop Believin'

Journey

 Journey
Tom: E
		
(intro)


E|---------------------------------------------------------|
B|---------------------------------------------------------|
G|---------------------------------------------------------|
D|---------------------------------------------------------| (várias vezes)
A|--------2--4-6-4--6-7----6-7--------2--4-6---------6-7---|
E|-0--2-4---------------5------0--2-4--------4--4-6------0-|


     H.N        H.N

E|---------||----5----|
B|----5----||---------|
G|---------||---------|
D|---------||---------|
A|---------||---------|
E|---------||---------|


(riff 1)
 PM .  .  .  .

E|-17-16-------|
B|-------18-16-|
G|-------------|
D|-------------|várias vezes bem rápido                                                                   A|-------------|
E|-------------|



E|-17-16-------|
B|-------18-16-|
G|-------------|
D|-------------|várias vezes bem rápido                                                                   A|-------------|
E|-------------|


(riff 2)

E|--19b20/|
B|--19b21/|
G|--------|
D|--------|
A|--------|
E|--------|


(riff 3)

     A5        A5        E5        E5
E|----------------------------------------|
B|--16--14----16--17----16--17----16--17--|
G|--16--14----16--16----16--16----16--16--| (4x) na 4ª vez não faz a parte do E5.
D|--16--14----16--18----16--18----16--18--|
A|----------------------------------------|
E|----------------------------------------|


(riff 4)


    E5         B5      C#5       A5       E5        B5      Ab5 A5
E|---0--------------------------------------0---------------------|
B|---0--------------------------------------0---------------------|
G|----------------------------------------------------------------|
D|---------------------1------1-2-2--1-2---------------------6--7-|
A|------------2~~--2-4---4~~------0-----------------2--2-4-6-6--7-|
E|-0----0-2-4-----------------------------0---0-2-4----------4--5-|


Just a small town girl
Living in a lonely world
					H.N
She took the midnight train going anywhere
Just a city boy
Born and raised in South Detroit
					H.N
He took the midnight train going anywhere

(riff 1  e riff 2)
A singer in a smoky room
A smell of wine and cheap perfume
For a smile they can share the night
It goes on and on and on and on

(riff 3)
A5                  E5
Strangers, waiting, up and down the boulevard
A5                              E5
Their shadows searching in the night
A5                  E5
Streetlight people, living just to find emotion
A5                       B5 E5  B5 A5
Hiding somewhere in the night

(riff 4)
E                B
Working hard to get my fill
C#m         A
Everybody wants a thrill
E                   B
Paying anything to roll the dice
     Abm        A
Just one more time
E               B
Some will win, some will lose
C#m                A
Some were born to sing the blues
E             B
Oh the movie never ends
        Abm           A
It goes on and on and on and on

(riff 3)
A5                  E5
Strangers, waiting, up and down the boulevard
A5                              E5
Their shadows searching in the night
A5                  E5
Streetlight people, living just to find emotion
A5                       B5 E5  B5 A5
Hiding somewhere in the night

(solo)

E|-----------------14-16b17-16-14-16b17-16~~-16b17r16-14--------------|
B|-------14-16-17----------------------------------------17-16-17-14--|
G|-14-16--------------------------------------------------------------|
D|--------------------------------------------------------------------|
A|--------------------------------------------------------------------|
E|--------------------------------------------------------------------|



E|-------16b17-16-14-16b17-16-14----19~~-21b23~b24|
B|-------------------------------17---------------|
G|-16-14------------------------------------------|
D|------------------------------------------------|
A|------------------------------------------------|
E|------------------------------------------------|


(riff 4)
Don't stop believing
Hold on to that feeling
Streetlight people ohhh...
Don't stop believing
Ohhh... yeah...
Streetlight people ohhh...
Don't stop believing
Hold on to that feeling
Streetlight people ohhh...

Comentários 7

  • redhotguns redhotguns: Postado em 28/07/2013 02:19

    o Solo no site da songsterr ta mais certo q esse

  • fezao1 fezao1: Postado em 04/07/2013 22:27

    affs solo nd a ver

  • singed singed: Postado em 30/12/2011 14:06

    esse solo nao ta errado?

  • markadams markadams: Postado em 11/08/2011 09:59

    ótima música, fácil de tocar

  • qwerty1234 qwerty1234: Postado em 27/07/2011 18:54

    video-aula dessa MUSICA

  • MegaMat MegaMat: Postado em 23/04/2011 19:54

    eu consegui tocar o piano e o baixo juntos no meu violao!

Composição: Carl Perkins / Christian Ingebrigsten / Christian Leuzzi / J. Jeberg / Jonathan Cain / María Teresa Lara / Neal Schon / Steve Perry
Esse não é o compositor? Avise-nos.
Contribuição: Pedro Lobo Correções: bruno.tumelero.31 e mais 1 »
Exibir acordes »
publicidade
fechar