Digital

Joy Division

 Joy Division
Tom: D
		
=====================================================

Notations :
  e : 8th             h : half            q : quarter         
  w : whole           


Riff 1
-------
    q    q    e e q      q    e q    e e e  

G|-|--------------------|-------------------|
D|-|--------------------|-------------------|
A|-|-5----4--------4----|-5----4-5----4-5-4-|
E|-|-----------5-5------|-------------------|


Riff 1a
------
    q    q    e e q      q    e q    e e e  

G|-|--------------------|-------------------|
D|-|--------------------|-------------------|
A|-|-5----4--------4----|-5----4-5----4---4-|
E|-|-----------5-5------|---------------5---|


Riff 1b
-------
    q    q    e e q      q    e q    e e e  

G|-|--------------------|-------------------|
D|-|--------------------|-------------------|
A|-|-5----4--------4----|-5----4-5----0-4-0-|
E|-|-----------5-5------|-------------------|


Riff 1c
-------
    q    q    q+e    e   q    e q    e e e  

G|-|--------------------|-------------------|
D|-|--------------------|-------------------|
A|-|-5----4-----------4-|-5----4-5----4---4-|
E|-|-----------5--------|---------------5---|


Riff 1d
-------
    q    q    e e q      w               

G|-|--------------------|----------------|
D|-|--------------------|----------------|
A|-|-5----4--------4----|-5--------------|
E|-|-----------5-5------|----------------|



Riff 2
------
    q    q    e e q      q    e q    e e e  

G|-|--------------------|-------------------|
D|-|--------------------|-------------7-6-6-|
A|-|-5----4--------4----|-5----4-5----------|
E|-|-----------5-5------|-------------------|


Riff 2b
-------
    q    q    e e q      q    e q    e e e  

G|-|--------------------|-------------------|
D|-|--------------------|-------------6-7-7-|
A|-|-5----4--------4----|-5----4-5----------|
E|-|-----------5-5------|-------------------|


Riff 2c
-------
    q    q    e e q      q    e q    e e e  

G|-|--------------------|-------------------|
D|-|--------------------|-------------7-7-7-|
A|-|-5----4--------4----|-5----4-5----------|
E|-|-----------5-5------|-------------------|


Riff 2d
-------
    q    q    q+e    e   q    e q    e e e  

G|-|--------------------|-------------------|
D|-|--------------------|-------------7-6-6-|
A|-|-5----4-----------4-|-5----4-5----------|
E|-|-----------5--------|-------------------|



Riff 3
------
    q    q    e e e e  

G|-|-------------------|
D|-|-------------------|
A|-|-5----4----------4-|
E|-|-----------5-5-5---|


Riff 4
------
    q  q  h     

G|-|------------|
D|-|------------|
A|-|-5--4--5----|
E|-|------------|



Riff 5
------
    e e q    q    e e  

G|-|-------------------|
D|-|-------------------|
A|-|-4-0-5----5----5-0-|
E|-|-------------------|


Riff 6
------
    e e e e e e e e  

G|-|-----------------|
D|-|-----------------|
A-|-4-0-5-0-4-0-5-0-|
E|-|-----------------|




-----------------
|Song Structure |
-----------------

Intro : 
  Riff 1
  Riff 1b then drums & guitar enter
  Riff 1a
  Riff 2
  Riff 1a (x4)
  Riff 2
  Riff 2b

Verse 1
  Riff 2c
  Riff 2b
  Riff 1a (x2)
  Riff 2 (x2)

Chorus
  Riff 3 (x8)
  Riff 4 
  Riff 3 (x3)
  Riff 4 
  
Break
  Riff 2
  Riff 2b
  Riff 2
  Riff 1a (x3)
  Riff 2c

Verse 2
  Riff 2c
  Riff 2 (x5)

Chorus
  Riff 3 (x2)
  Riff 2

Guitar solo
  Riff 1a
  Riff 1c
  Riff 2d
  Riff 1c
  Riff 2d
  Riff 1c
  Riff 5 (x4)
  Riff 6
  Riff 5

Verse 3
  Riff 1a
  Riff 2 
  Riff 2c (x2)
  Riff 1a (x3)
  Riff 2b
  Riff 1a

End
  Riff 2b
  Riff 1b
  Riff 1d

Comentários 0

Composição: Bernard Sumner / Carlos Imperial / Ian Curtis / Peter Hook / Renato Droghetti / Stephen Morris
Esse não é o compositor? Avise-nos.
Contribuição: Rafael
Consegui tocarAinda não conseguiram tocar essa música. Seja o primeiro!
    Não consegui tocar
    Exibir acordes »
    publicidade
    fechar