Tom: E
		
Standard Tuning
Tabbed by:  Steve Povolny
* Indicates chords that work very well, but may not be the official chords
email * with any questions, or with corrections.  Thanks.


INTRO

Play the third chord's low E string with your thumb.

    *               *

----X---------------0--------------0---------------2------------------------|
----3---------------3--------------2---------------3------------------------|
----2---------------1--------------2---------------2------------------------|
----0---------------0--------------2---------------0------------------------|
----0---------------0--------------0---------------X------------------------|
----2---------------0--------------1---------------X------------------------|


VERSE

In the shadows, of tall buildings, fallen angels, and crumbled ceilings-

    *           *

----X-----------0--------------------0--------------2---------------------|
----3-----------3--------------------2--------------3---------------------|
----2-----------1--------------------2--------------2---------------------|
----0-----------0--------------------2--------------0---------------------|
----0-----------0--------------------0--------------X---------------------|
----2-----------0--------------------1--------------X---------------------|


Oily feathers, in bronze and concrete, faded colors, pieces left incomplete-


----2-----------0-----------------------0-------------2---------|
----3-----------1-----------------------2-------------2---------|
----2-----------2-----------------------2-------------3---------|
----0-----------0-----------------------2-------------4---------|
----X-----------0-----------------------0-------------4---------|
----X-----------0-----------------------2-------------2---------|



The line moves slowly, past the electric fence, across the borders, between continents


---2--------------------0-----------------------0-------------------2----|
---3--------------------0-----------------------2-------------------2----|
---4--------------------1-----------------------2-------------------3----|
---4--------------------2-----------------------2-------------------4----|
---2--------------------2-----------------------0-------------------4----|
---2--------------------0-----------------------0-------------------2----|


REFRAIN

In the cathedrals, of New York and Rome, there is a feeling


---2----------------0---------------------0------------------------|
---3----------------0---------------------2------------------------|
---4----------------1---------------------2------------------------|
---4----------------2---------------------2------------------------|
---2----------------2---------------------0------------------------|
---2----------------0---------------------0------------------------|



that you should just go home, and spend a lifetime, finding out.....


---0---------------------2---------------------------0--------------------|
---2---------------------3---------------------------0--------------------|
---2---------------------4---------------------------1--------------------|
---2---------------------4---------------------------2--------------------|
---0---------------------2---------------------------2--------------------|
---2---------------------2---------------------------0--------------------|


Email *
315 exibições

Comentários 0

Composição: David Boradoni / Sérgio
Esse não é o compositor? Avise-nos.
Consegui tocarAinda não conseguiram tocar essa música. Seja o primeiro!
    Não consegui tocar
    Exibir acordes »
    publicidade
    fechar