Tiro Certo

Kenedy Karu

 Kenedy Karu
Tom: G
		
(refrão inicial)


       G             Em     Bm  C9
E|-----3------3------0------2---3-----------
B|-----3------3------0------3---3-----------
G|-----0------0------0------4---0-----------
D|-0-2-0--0-2-0--0-1-2------4---2-----------
A|-----2------2------2--0-1-2---3-----------
E|-----3------3------0----------------------



   D
E|-2-2-2-2-2-2-2-2--------------------------
B|-3-3-3-3-3-3-3-3--------------------------
G|-2-2-2-2-2-2-2-2--------------------------
D|-0-0-0-0-0-0-0-0--------------------------
A|------------------------------------------
E|------------------------------------------


G
  Ela joga o meu coração na fogueira
G
  Me incendeia de paixão a noite inteira
Em                  Bm
  Essa garota toma conta de mim
  C9                     D
E eu só preciso que ela diga que sim

(primeira parte)

( G  C ) (2x)

 G5             C
Lá estava eu a toa na vida
G5                     C
  Contanto estrelas olhando a lua
G5               C
  Meu coração a tempos sozinho
G5                     C
  Só faltava te encontrar na rua

Am               Bm
  Eu sei que o amor não marca hora
C9               Bm
  Nem diz quando é que vai embora
       Am                   Am/G
Mas foi   um tiro certo rasgando o meu peito
    D G      D
Se dane a   tal solidão

(refrão 2x)
G                   D
Ela joga o meu coração na fogueira
G                     D
  Me incendeia de paixão a noite inteira
Em                  Bm
  Essa garota toma conta de mim
  C9                     D
E eu só preciso que ela diga que sim

(base do solo) G5 C (3x)
               G C D

(solo)

(parte 1)

E|---------------------------------------------------
B|---------------------------------------------------
G|-3p0-3p0-----3p0-3p0-----3p0-3p0-----3p0-3p0-------
D|---------3p0---------3p0---------3p0---------3p0---
A|---------------------------------------------------
E|---------------------------------------------------



E|---------------------------------------------------
B|---------------------------------------------------
G|------------3p0-3p0-----3p0-3p0--------------------
D|--------------------3p0---------3p0----------------
A|---------------------------------------------------
E|-1p0-2p0-3-----------------------------------------



E|---------------------------------------------------
B|------6---6---6---6-6h8~-6h8~----------------------
G|-5/7----7---7---7----------------------------------
D|---------------------------------------------------
A|---------------------------------------------------
E|---------------------------------------------------


(parte 2)

E|-6p3---5p3---6p3---5p3--------10-12-15~-15~--------
B|-----5-----5-----5-----5-9/12----------------------
G|---------------------------------------------------
D|---------------------------------------------------
A|---------------------------------------------------
E|---------------------------------------------------


(parte 3)

E|---------------------------------------------------
B|-15-12-------------------------15-----13--14--15---
G|-------15-14-12----14-12-14/16----16---------------
D|----------------14--------------------10--11--12---
A|---------------------------------------------------
E|---------------------------------------------------


(repete a primeira parte)

G5          C
  Até agora eu não acredito
G5                   C
  No anjo que caiu aqui na minha mão
G5                     C
  Ela é meu sonho, meu doce paraíso
G5                       C
  Ela será pra sempre a minha perdição

Am               Bm
  Eu sei que o amor não marca hora
C9               Bm
  Nem diz quando é que vai embora
       Am                   Am/G
Mas foi   um tiro certo rasgando o meu peito
    D      G       D
Se dane a tal solidão

(refrão 5x)
414.165 exibições

Comentários 0

Composição: Kiko Furtado / Leo Bary
Esse não é o compositor? Avise-nos.
Contribuição: Kenedy Karu
Consegui tocarAinda não conseguiram tocar essa música. Seja o primeiro!
    Não consegui tocar
    Exibir acordes »
    publicidade
    fechar