Sonho

Khorus

 Khorus
Tom: A
		
Intro:  E5 B/E C#m7/E A9/E E4(6)

Primeira parte:
E5
 Lá fora a chuva cai
      B/E
 E me lembro do momento
C#m7/E
 Que as minhas lágrimas
       A9/E E4(6)
 Você veio enxugar

Segunda parte:
E5
 Meu coração
      B/E           C#m7/E
 Não pode esconder, não
      A9/E E4(6)
 Que eu:

Pré-Refrão:
     F#m            G#m
 Chorei, pra ter você,
           E4(6)      A9/E   E4(6)
 Perto de mim e poder te dizer
      
 Que eu
F#m             G#m
 Sempre te amei
           C9               B4/E
 Um sonho que Deus realizou

Refrão:
           E5          B/E
 O nosso amor veio do céu
          C#m7/E         A9/E E4(6)
 Onde não há imperfeição
          E5            B/E
 Meu coração, gritando diz
           C#m7/E
 Que eu te amo
A9/E E4(6)          E5 B/E C#m7/E A9/E E4(6)
 Que eu te amo

Primeira parte:
E5
 Lá fora a chuva cai
      B/E
 E me lembro do momento
C#m7/E
 Que as minhas lágrimas
       A9/E E4(6)
 Você veio enxugar

Segunda parte:
E5
 Meu coração
     B/E             C#m7/E
 Não pode esconder, não
      A9/E E4(6)
 Que eu:

Pré-refrão:
     F#m            G#m
 Chorei, pra ter você,
            E4(6)     A9/E E4(6)
 Perto de mim e poder te dizer
        F#m
 Que eu
                G#m
 Sempre te amei
           C9              B4/E
 Um sonho que Deus realizou

Refrão:
           E5          B/E
 O nosso amor veio do céu
          C#m7/E        A9/E E4(6)
 Onde não há imperfeição
          E5            B/E
 Meu coração, gritando diz
           C#m7/E
 Que eu te amo
A9/E E4(6)
 Que eu te amo


Solo 2x: F#m  G#m  A9 B11
E|---9---9b------9--12--11b--11-11----------------------|
B|-9---9-------9--------------------9-9-12--9-7-7-7-----|
G|------------------------------------------------------|
D|------------------------------------------------------|
A|------------------------------------------------------|
E|------------------------------------------------------|



E|-9-11-------------------------------------------------|
B|------9-11-12-11--------------------------------------|
G|-------------------11-11--12-13-12-13-12-13--11-11----|
D|------------------------------------------------------|
A|------------------------------------------------------|
E|------------------------------------------------------|



E|------------------------------------------------------|
B|------------------------------------------------------|
G|-10-10-10-10-10-10-12--10-10-10-12--12-12-12-12-------|
D|------------------------------------------------------|
A|------------------------------------------------------|
E|------------------------------------------------------|


Refrão 2x:

         E5            B/E
Meu coração, gritando diz
          C#m7/E  A9/E E4(6)
Que eu te amo
          E5          B/E
O nosso amor veio do céu          
         C#m7/E         A9/E E4(6)
Onde não há imperfeição
         E5            B/E
Meu coração, gritando diz
          C#m7/E   A9/E E4(6) E5
Que eu te amo

Comentários 39

  • LUAN LUAN: Postado em 25/09/2014 01:49

    VIDEO AULA AE POR FAVOR

  • LUAN LUAN: Postado em 23/09/2014 01:13

    MANDA VIDEO AULA

  • Melyssa Melyssa: Postado em 31/05/2014 13:08

    Muito top

  • Lucas Lucas: Postado em 12/05/2014 19:41

    bando de noob q não sabe tocar e fica pedindo video aula de musica facil...

    • Ale Ale: Postado em 16/04/2015 - 14:02

      O fato de você se considerar o Deus do violão e da guitarra não te dá o direito de ofender os outros, chamando-os de "noob".

  • Maytton Maytton: Postado em 04/12/2013 18:03

    muito legal ...

  • Cezar Cezar: Postado em 27/06/2013 16:37

    video no youtube: canal cezar romero sonho khorus.

  • juliano juliano: Postado em 17/04/2013 13:29

    ou pode usar D5

  • mzgrycelo mzgrycelo: Postado em 23/09/2012 12:04

    EY , MA TEM OUVDO N E SABE NEM PEGAR MUSYCA

  • jhonnycover jhonnycover: Postado em 20/09/2012 04:35

    No Lugar do E5/D# façam o B5, Fica muito melhor, Abraço.

Exibindo 10 de 39 comentários Mostrar mais ver todos »
Composição: Toninho Rondow/ Juninho Guitarra/ Eliah Oliver
Esse não é o compositor? Avise-nos.
Contribuição: zoze__ Correções: lu19 , rate5 e mais 9 »
Exibir acordes »
publicidade
fechar