Eu tive um sonho

Kid Abelha

 Kid Abelha
Tom: D
		
É o que devemos fazer...		(3X)			       era preciso...

E|-------------------|-------------|-9/10-10-10-10-|-9-9-9-7-7-7-5-5-5-|---8-14--10-10-9--12-10--
B|-12-10-------------|-12-10----10-|-9/10-10-10-10-|-9-9-9-7-7-7-5-5-5-|-8---14--8--8--10-10-10--
G|-------12-11-12-12-|-------12----|---------------|-------------------|-------------------------
D|-------------------|-------------|---------------|-------------------|-------------------------
A|-------------------|-------------|---------------|-------------------|-------------------------
E|-------------------|-------------|---------------|-------------------|-------------------------


Solo:

E|-------------------------------(10p9h10p9)-(12p10h12p10)-----17----17----17----17--------------
B|---------------------10-12-10-----------------------------19----19----19----19----19--15h19-17-
G|-11-9--------9-11-12---------------------------------------------------------------------------
D|------12-12------------------------------------------------------------------------------------
A|-----------------------------------------------------------------------------------------------
E|-----------------------------------------------------------------------------------------------

()=repete várias vezes


E|-------------------------------------------------------------------------------5---
B|-12-12-10-10-8-8-7-5---7-5--------------------------------3------3-----3-----3-----
G|---------------------7-----6h7p6-6---------------------------2-4---2-4---2-4-------
D|------------------------------------7-5p4------------------------------------------
A|-------------------------------------------7-5p4--4h5------------------------------
E|------------------------------------------------------5----------------------------



E|-14-16-17-16-14--------------------------------------------------------------------
B|----------------17-15-14-----------------------------------------------------------
G|-------------------------16-14-1311---9--11-12-9--97-----------------------------
D|-----------------------------------------------------------------------------------
A|-----------------------------------------------------------------------------------
E|-----------------------------------------------------------------------------------

Obs: No "Meio Desligado", a 1ª e a 3ª parte do solo são feitas uma 8ª acima.

(acústico)
Intro:			   É o que devemos fazer...

E|------------------------|---------------|--------------
B|------------------------|-12-10-8-7-8-8-|-12-10-8--10--
G|-11-11-11-11-11---9-7-6-|---------------|--------------
D|------------------------|-9--7--5-4-5-5-|-9--8--5--8---
A|-9--9--9--9--9----7-5-4-|---------------|--------------
E|------------------------|---------------|--------------


solo:								(2X)

E|-----------------7-7-5--7-9-10--2-3-4-5-7/9-|---0---0---0---0---0---0---0---0---0---0-|-5-
B|-7-5-------5-7-8----------------------------|-7p5---5---5---5---5---0---0---0---0---0-|-5-
G|-----7-6h7-------7-7-6--7-9-11--3-4-5-6-7/9-|-----7p6-7p6-7p6-7p6-6p4-6p4-6p4-6p4-6p4-|---
D|--------------------------------------------|-----------------------------------------|---
A|--------------------------------------------|-----------------------------------------|---
E|--------------------------------------------|-----------------------------------------|---



George Israel / Paula Toller

[Intro:] D G A

            D   G           A
Eu tive um sonho vou te contar
         Em         D        A
Eu me atirava do oitavo andar
          C/G           D/A
E era preciso fechar os olhos
            G          A         D
Prá não morrer e não me machucar

          Em      C
É o que devemos fazer
           D       A
Não temos que ter medo
          Em       C   A7(4)
É o que devemos fazer

Eu tive um sonho muitos soldados
Me procuravam dentro do meu prédio
E era preciso voar pelas escadas
Prá não deixar que eles chegassem perto

É o que devemos fazer
Não temos que ter medo
É o que devemos fazer

                 G    C9              D  D4
Não deixe de cruzar o seu olhar com o meu
        G                A           D   
Eu vou jogar meu corpo em cima do seu 
               G       C9             D  D4
Não deixe de cruzar o seu olhar com o meu
        G                  A         D G A
Eu vou jogar meu corpo em cima do seu

C/G       D/A
É o que devemos fazer
C/G       D/A           A7(4)
É o que devemos fazer, não...
240.240 exibições

Comentários 2

  • Luis Eduardo Luis Eduardo: Postado em 27/05/2013 18:22

    No quarto tempo do compasso 30 as notas reais são FA

  • carlycarlinha carlycarlinha: Postado em 13/11/2011 14:11

    a parte de cima ainda to estudando mas a pate de baixo e mole

Composição: George Israel / Joe Puerta / José Luis Perales / Lucas
Esse não é o compositor? Avise-nos.
Exibir acordes »
publicidade
fechar