Nada Sei

Kid Abelha

 Kid Abelha
Tom: E
		
Intro:

          E     E/D#      C#m    C#m/B   F#m      B
E|---4/5\4-------4/5\4--------4---------------------------|
B|---------7-5---------7-5------7-5--------5-4---5-7------|
G|----------------------------------4h6-------------------|
D|--------------------------------------------------------|
A|--------------------------------------------------------|
E|--------------------------------------------------------|


E     E/D#  C#m   C#m/B
 Nada sei    dessa vida
F#m         B
 Vivo sem saber
E      E/D#   C#m      C#m/B
 Nunca soube, nada saberei
F#m         B
 Sigo sem saber
      F#m        B
Que lugar me pertence
       F#m    G#m A B
Que eu possa abandonar
      F#m         B
Que lugar me contém
    F#m   G#m A B
Que possa me parar

       A          E
Sou errada, sou errante
              F#m
Sempre na estrada
          B
Sempre distante
       F#m             Am          E E/D#  C#m C#m/B
Vou errando enquanto o tempo me deixar
       F#m             Am          E E/D#  C#m C#m/B   F#m   B
Vou errando enquanto o tempo me deixar

E     E/D#  C#m    C#m/B
 Nada sei    desse mar
F#m         B
 Nado sem saber
E        E/D#   C#m   C#m/B
 De seus peixes, suas perdas
F#m         B
 De seu não respirar
      F#m         B
Nesse mar os segundos
  F#m       G#m A  B
Insistem em naufragar
     F#m       B
Esse mar me seduz
      F#m      G#m A B
Mas é só pra me afogar

       A          E
Sou errada, sou errante
              F#m
Sempre na estrada
          B
Sempre distante
       F#m             Am          E E/D#  C#m C#m/B
Vou errando enquanto o tempo me deixar
       F#m             Am          E B/D#  C#m C#m/B   F#m   B
Vou errando enquanto o tempo me deixar
Solo 1:

E|-------------------------------------------------------------|
B|--9b11-7-----9b11-7----9p7--------5------5-7-----------------|
G|---------9----------9------9--4/6---6/8----------------------|
D|-------------------------------------------------------------|
A|-------------------------------------------------------------|
E|-------------------------------------------------------------|


Solo 2:

E|-----------------------------------7----7--------------------|
B|--9b11---7-----9---------5---5-------------------------------|
G|-------9---8-9---9--4/6----6---6/8----8----------------------|
D|-------------------------------------------------------------|
A|-------------------------------------------------------------|
E|-------------------------------------------------------------|


Solo 3:

E|--5p4---7--5p4---5--------------------5p4---7--5p4---7-4-----|
B|------5--------5---7-5------5-----5-7-----5--------5-----7-5-|
G|-----------------------4/6----6/8----------------------------|
D|-------------------------------------------------------------|
A|-------------------------------------------------------------|
E|-------------------------------------------------------------|



E|-------------------------------------------------------------|
B|------5-----5-7----------------------------------------------|
G|--4/6---6/8--------------------------------------------------|
D|-------------------------------------------------------------|
A|-------------------------------------------------------------|
E|-------------------------------------------------------------|


Intro:

          E     E/D#      C#m    C#m/B   F#m      B
E|---4/5\4-------4/5\4--------4---------------------------|
B|---------7-5---------7-5------7-5--------5-4---5-7------|
G|-----------------------------------6--------------------|
D|--------------------------------------------------------|
A|--------------------------------------------------------|
E|--------------------------------------------------------|


       A          E
Sou errada, sou errante
              F#m
Sempre na estrada
          B
Sempre distante
       A          E
Sou errada, sou errante
              F#m
Sempre na estrada
          B
Sempre distante
       F#m             Am          E E/D#  C#m C#m/B
Vou errando enquanto o tempo me deixar
       F#m             Am          E E/D#  C#m C#m/B   F#m   B
Vou errando enquanto o tempo me deixar
Texto Colunas
Alterar tom ½ tom ½ tom
afinação acordes na letra esconder tabs mais »
184.384 exibições

Comentários (2)

  • cassiabuzios cassiabuzios: Postado em 02/03/2014 13:42

    Uma graça de canção...

  • _analuiza6 _analuiza6: Postado em 15/02/2012 00:48

    Amoo essa música , simplismente ela é Peerfeita! s2'

Composição: George Israel / Joe Puerta / José Luis Perales / Lucas
Esse não é o compositor? Avise-nos.
Contribuição: Brunogreat Correções: Emilly , karol_francieli e mais 6 »
  1. Tudo Que Você Quiser - Luan Santana Manteve-se 6.028 exibições
  2. Lepo Lepo - Psirico Manteve-se 4.297 exibições
  3. Pra Você - Onze:20 Manteve-se 4.147 exibições
  4. Mozão - Lucas Lucco Manteve-se 4.130 exibições
  5. Logo Eu - Jorge e Mateus Manteve-se 3.983 exibições
  6. Gaveta - Fernando e Sorocaba Manteve-se 3.779 exibições
  7. Só Os Loucos Sabem - Charlie Brown Jr. Manteve-se 3.131 exibições
  8. Tempo Perdido - Legião Urbana Manteve-se 2.706 exibições
  9. Fui Fiel - Gusttavo Lima Manteve-se 2.673 exibições
  10. Domingo de Manha - Marcos e Belutti Manteve-se 2.465 exibições
  1. Jorge e Mateus- Manteve-se 23.782 exibições
  2. Legião Urbana- Manteve-se 21.512 exibições
  3. Charlie Brown Jr.- Manteve-se 17.212 exibições
  4. Luan Santana- Manteve-se 17.149 exibições
  5. Fernandinho- Manteve-se 15.105 exibições
  6. Thalles Roberto- Manteve-se 11.065 exibições
  7. Católicas- Manteve-se 10.946 exibições
  8. Gusttavo Lima- Manteve-se 10.939 exibições
  9. Victor e Leo- Manteve-se 10.661 exibições
  10. Bruno e Marrone- Manteve-se 10.324 exibições
Exibir acordes »

Cifras e tabs

Fórum Cifra Club

Aprenda

Cifra Club News

Mais Serviços Cifra Club ID

Studio Sol

©1996 - 2014 Cifra Club · o primeiro, maior e mais acessado do Brasil · 329 mil músicas · 6.0 milhões pessoas cadastradas

publicidade
fechar