Stand By Me

Ben E. King

 Ben E. King
Tom: A
		
(intro)

    (riff 1)                         (riff 2)

E |-----------------------------2-|---------------------------------------------|
B |-2---2-------5---5-----5--4----|---------------------------------------------|
G |-------------------------------|---------------------------------------------|
D |-------------------------------|-------------------------0-0-0-0------4-2-0-0|
A |-0---0-------------------------|---------------------------------2-2---------|
E |--------0h2--5---5--0--5--4--2-|-0h5--4--2-2-2-0-2-2-0-2---------------------|


(intro fica no riff 1)
(resto da música - riff 1 e na 2)

Ao invés de fazer os riffs pode ser tocada com acordes

(A   F#m   D   E   A )
When the night has come
And the land is dark
And the moon is the only light we see
No I won't be afraid
No I won't be afraid
Just as long as you stand  stand by me
And darling  darling stand by me
Oh  now  now  stand by me
Stand by me  stand by me

If the sky that we look upon
Should tumble and fall
And the mountain should crumble to the sea
I won't cry  I won't cry
No I won't shed a tear
Just as long as you stand  stand by me

And darling  darling stand by me
Oh  stand by me
Stand by me  stand by me  stand by me

Whenever you're in trouble won't you stand by me
Oh  now  now  stand by me
Oh  stand by me  stand by me  stand by me

Darling  darling stand by me
Stand by me
Oh stand by me  stand by me  stand by me

(podemos também utilizar essa base na música toda)

E |------------------------------------------------------------------------|
B |------------------------------------------------------------------------|
G |------------------------------------------------------------------------|
D |------------------------------------------------------------------------|
A |------------------------------------------------------------------------|
E |-2--6-7--7----2--6-7--7---7-6-4--4--2--4-4--4-2-0--0--0-4-2--2--6-7--7--|
128.042 exibições

Comentários 0

Composição: Ben E. King / Carlos Stein / Daniel Melingo / Dieter Bohlen / Don Gibson / Ed Bruce / Kim Tribble
Esse não é o compositor? Avise-nos.
Contribuição: Ericobr Correções: gregluz e mais 1 »
Exibir acordes »
publicidade
fechar