Sure know Something

Kiss

 Kiss
Riff 1---------------------------------------------------------:
G:----------------------------------------------------------------------:----|
D:-------------------------------------------------------------7-5------:----|
A:-sl/7--7-5---5-7--7-5------------------------------5-7-5---------7-5-7:----|
E:-----------7----------7-3-5--5-3-0-3-5--5-3-0-3-7--------7-5----------:-3-5|





               Verse=Rif 1 end with:            Chorus
G:------------:--------------------------------:-----------------------------|
D:------------:--------------------------------:-----------------------------|
A:--------sl\5:-7-7-7-7-7-7-7-7-7-7-7-7-7-3-3-5:5-3-2-0-2--5-3-2-0-2--3-2-0--|
E:-3-sl\7-----:--------------------------------:----------------------------3|
                                                <------------------2x--------




                                                  Solo=Fig 1 & end with: 2x
G:-----------------------------------------------:---------------------------|
D:-----------------------------------------------:---------------------------|
A:-3-2-0-----5-3-2-0-2--5-----0-2-0-2-3-2-0---3-5:---------------------------|
E:-------3-0--------------0-2---------------3----:0-0-0-0-0-0-0-0-0-0-0-0-0-0|
  --------->





G:---------------------------------------------------------------------------|
D:---------------------------------------------------------------------------|
A:---------------------------------------------------------------------------|
E:-0-0-5-5-5-5-5-5-5-5-5-5-5-5-5-5-5-5-7-7-7-7-7-7-7-7-5-5-5-5-5-5-5-5-0-0-0-|



                                
                                
           Chorus Repeat & Fade
G:--------:--------------------:|
D:--------:--------------------:|
A:--------:--------------------:|
E:0-0-etc.:--------------------:|


_______________________________________________________
Contribuição: Vinicius Bittencourt(psychors@zaz.com.br)

Comentários 0

Composição: Full Force / Paul Stanley / Robert Foster / Vini Poncia
Esse não é o compositor? Avise-nos.
Consegui tocarAinda não conseguiram tocar essa música. Seja o primeiro!
    Não consegui tocar
    publicidade
    fechar