Ela Não Está Aqui

KLB

 KLB
Tom: C
		

 Intro: C Dm F C
E|------------------------|
B|------------------------|
G|------------------------|
D|------------------------|
A|-3-3-5--------3-3-5-3---|
E|------3^-1-3~5----------|


                C                 Dm
Tá difícil esquecer, tirar você de mim
                      F     G                 C    A|--5^-3-
Nos meus olhos dá pra ver, seu adeus doendo assim
                     C                   Dm
Não pensei que esse amor, me pudesse machucar
                 F   G                   C
e uma lágrima de dor, hoje cai no meu olhar

E|-------------------------|
B|-------------------------|
G|-------------------------|
D|-----------2-3-2---------|
A|-----3-3~5-------5-3-5-3-|
E|-3~5---------------------|


Refrão:
  C               Dm                    F
Baby, te vejo tão longe, de mim tão distante
            C    C7
Além do horizonte
        C                    Dm                F    E|--3^-1-
É é é  Baby, eu grito o seu nome, saudade responde,
    G          C
Ela não está aqui.

E|-------------------------|
B|-------------------------|
G|-------------------------|
D|-----------2-3-2---------|
A|-----3-3~5-------5-3-5-3-|
E|-3~5---------------------|


                      C                       Dm
Quando o sol vem me tocar, parecendo o beijo seu,
                  F     G                      C
Deixo o sonho me levar, pra acordar nos braços seus.

Refrão:
  C               Dm                    F
Baby, te vejo tão longe, de mim tão distante
            C
Além do horizonte
        C                    Dm                F   E|--3^-1-
É é é  Baby, eu grito o seu nome, saudade responde,
    G          C
Ela não está aqui.

Solo: C  Dm  F  C    C  Dm  F  G  C

Comentários 2

  • luccas luccas: Postado em 18/09/2013 12:21

    kkkkkkkkkkkk so os fortes iram entender minha risada

  • thalesfreitas thalesfreitas: Postado em 03/07/2012 13:01

    reponsa !!!

Composição: Abigail Harding / César Augusto / Dallas L. Austin / Jack Manus / Suga P.
Esse não é o compositor? Avise-nos.
Contribuição: Alex Sander Correções: jairibeironunes »
Exibir acordes »
publicidade
fechar