Adore

Kleber Lucas

 Kleber Lucas Compositor: Kleber Lucas
Tom: F#
		
Intro: F# D#m A#m7 B


E|------------------11|------------------13|------------------14-14|
B|-11-9-11-9-11-9-11--|-11-9-11-9-11-9-11--|-11-9-11-9-11-9-11-----|


F#    D#m
Adore
          A#m7
E se o sol não brilhar
    B                                    Bm7
Não deixe que a vida apague o brilho do olhar
             F#
Simplesmente adore
D#m    A#m7
O fogo do Altar
   B                        Bm7
Precisa estar aceso sempre


      F#    A#m7
Jeová Jireh Provedor
    B
Ele sabe o que eu preciso
      Bm7
E Ele vai cuidar das coisas
      F#     A#m7
Jeová Shalom minha paz
      B
Que o mundo não conhece
      Bm7
Tenho tudo o que preciso em mim


   D#m           C#9
Em Cristo, tenho tudo o que eu preciso
   B7+             C#9
Em Cristo, tenho tudo o que eu preciso


         G#m
E se a estrada dessa vida
      A#m7
Ainda não acabou
     B
É porque ainda não chegou ao fim
             C#
Ainda não chegou ao fim


E|----------------------- (passagem do coro)
B|-----------------------
G|-----------------------
D|-----------------------
A|-2/5-4-2-1-------------
E|------------5-4--2-2---
31.423 exibições

Comentários 1

Composição: Sabe quem é o compositor? Envie pra gente. Contribuição: doart Correções: Jhonata , urmo e mais 2 »
Exibir acordes »
publicidade
fechar