Nova criatura

Kleber Lucas

 Kleber Lucas
Tom: E
		
Intro 2x: B9  F#  A  E

B9            F#
a minha vida é tua vida (é sua vida)
A              E
Tudo que sou é totalmente teu Senhor
B9                F#
O meu presente e meu futuro te entreguei
A               E
E o meu passado afoguei
B                      F#
No mar do esquecimento do Senhor
A                    E
Nova criatura eu sou, nova criatura

B9                   F#
Eu não sou tudo o que você precisa,
A                               E
Ainda não sou tudo aquilo que eu queria ser
B9                          F#
Mais uma coisa eu sou, não abro mão não,
A                  E
Nova criatura sou, nova criatura

B9  F#        G#m          E                    B9
Ah! eu sou nova criatura, nova criatura eu sou       (2x)

(Intro)

A minha vida...

B     F#                 G#m          E
Ah! aquele que está em Cristo já morreu pro mundo
B     F#                 G#m             E
Ah! aquele que está em Cristo vive pra Deus sim

(Refrão)

Interlúdio


E|---------------------------------------------
B|---------------------------------------------
G|---------------------------------------------
D|---------------------------------------------
A|---2-2-5-2-7-5-7-9-9-8-8-7-6-5--2-2-5-2-7-5-2
E|---------------------------------------------




Solo da guitarra: 
 


E|------------------------------------------------| 
B|-9-10-11-12-9--12b14~--4/6-7-9-7-6--------------| 
G|----------------------------------6--8/10--6-6~-| 
D|-----------------------------------6------------| 
A|------------------------------------------------| 
E|------------------------------------------------| 



E|------6-8-9-9-7-5-4-7-5-4-------------| 
B|-6-7-9-------------------7-5-7b9-5-5~-| 
G|--------------------------------------| 
D|--------------------------------------| 
A|--------------------------------------| 
E|--------------------------------------| 



E|----4-5-7-5-7-9-7-9-11-9-11-12-11-12-14-12-14-16-14-16-17-| 
B|-5-7------------------------------------------------------| 
G|----------------------------------------------------------| 
D|----------------------------------------------------------| 
A|----------------------------------------------------------| 
E|----------------------------------------------------------| 



E|-16-17-19-17-19-19b21-19b21-19b21-19b21~~-|| 
B|------------------------------------------|| 
G|------------------------------------------|| 
D|------------------------------------------|| 
A|------------------------------------------|| 
E|------------------------------------------||

Comentários 4

  • Luiz Luiz: Postado em 03/04/2013 13:14

    essa introdução no teclado é {E D

  • isrrael.felix isrrael.felix: Postado em 03/02/2013 01:22

    Já corrigiu... =D

  • ricrdo ricrdo: Postado em 17/05/2012 14:48

    esta cifra tá muito errada principalmente no refrão :(

  • J. Peu J. Peu: Postado em 28/11/2011 18:38

    Muitas correções... cifragem ficou errada! Lamentável! =(

Composição: Kleber Lucas
Esse não é o compositor? Avise-nos.
Contribuição: gordorpa Correções: Anthonny , studio_vinheta e mais 13 »
Exibir acordes »
publicidade
fechar