Te Agradeço

Kleber Lucas

 Kleber Lucas
Tom: F
		
Intro: F/A  Bb9  F/C  C#º  Dm  C/E  F/A  Bb9

Primeira Parte:
F                C
Eu Te agradeço, Deus
                  Dm              Bb
Por se lembrar de mim e pelo Teu favor
	            F
E o que me faz crescer

              C            Dm
Eu vivo pela fé, e não vacilo
	                  Bb
Eu não paro, eu não desisto
	                      F
Eu sou de Deus, eu sou de Cristo


Solo 2x: F  C  Dm  Bb
E|-----------------------------6-6-6-5-6----|
B|-6-5-6---6-6-6-8-6-5-6-6-5-6--------------|
G|------------------------------------------|
D|------------------------------------------|
A|------------------------------------------|
E|------------------------------------------|


(Primeira Parte)

F            C
Você mudou a minha história
 Dm           Bb
E fez o que ninguém podia imaginar
F          C
Você acreditou e isso é tudo
Dm                Bb
Só vivo pra você

Não sou do mundo, não

F             C       Dm
A honra, a glória, a força
Bb	        F
O louvor a Deus
         C              Dm
E o levantar das minhas mãos
	Bb	               F
É pra dizer que Te pertenço, Deus
Solo:

E|-------------------------------|
B|-13-10-------------------------|
G|-------12-10--10/12/10---------|
D|-----------------------12-10---|
A|-------------------------------|
E|-------------------------------|


                 C
Eu Te agradeço, Deus
           Dm
Que no deserto
	          Bb              F
Não me deixou morrer e nem desanimar
               C           Dm
E como aquela mãe que não desiste
	         Bb   	       F
Você não se esqueceu, Você insiste

(volta - Pra você mudou a minha história..)

(riff com o vocal)

E|------------------------------------------------|
B|------------------------------------------------|
G|-7/10~------10-10/12~----12/15-14~-12-12/14-10~-|
D|-------10------------10-------------------------|
A|------------------------------------------------|
E|------------------------------------------------|

Comentários 0

Composição: Kleber Lucas
Esse não é o compositor? Avise-nos.
Contribuição: eliasafe
Exibir acordes »
publicidade
fechar