Embrace

Korn

 Korn
Tunning: A,D,G,C,F

Intro
F|--------|
C|--------|
G|--------|
D|--------|
A|-11-010-|

Verse
F|-------|
C|-------|
G|-------|
D|-------|
A|-00-11-|

Pre - Chorus
F|--------------------|
C|--------------------|
G|--------------------|
D|--------------------|
A|-3-3^3^-6--3-3^3^-4-|

Chorus
F|-------------|
C|-------------|
G|-------------|
D|-8-7-6-5-----|
A|---------5-4-|

Bridge
F|------------|
C|------------|
G|------------|x8
D|------------|
A|-22-2^-22-3-|

F|----------------------------------------------------------------------------|
C|----------------------------------------------------------------------------|
G|----------------------------------------------------------------------------|
D|----------------------------------------------------------------------------|
A|-00XX000--00XX000--00XX000--00XX000--00XX000--00XX000-XXXX-00XX000--00XX000-|

Heavy Bridge
F|------------|
C|------------|
G|----5^------|
D|------------|
A|-22----22-3-|

Outro: Same as Intro

Comentários 0

Consegui tocarAinda não conseguiram tocar essa música. Seja o primeiro!
    Não consegui tocar
    publicidade
    fechar