De Borest

Kuase Nada

 Kuase Nada
Música De Borest
Artista: Kuase Nada

Durante todo o andamento da música

Verso e Refrão 

|-----------------------------------------------|
|-----------------------------4>5>7-------------|
|-2---2-5-4--------2-4-5----5--------------0-1--|
|-------------3--3-------------------5--5-------|

|-------------------------------------------------|
|-----------------------------4>5>4---------------|
|-2---2-5-4--------2-4-5----5--------------0-1----|
|-------------3--3-------------------5--5---------|

|-------------------------------------------------|
|-----------------------------4>5>7---------------|
|-2---2-5-4--------2-4-5----5--------------4>5>4--|
|-------------3--3-------------------5--5---------|

Solo


|------------------------------------------------------------|
|-------------------------------------4-4-5-5-7-7--7-5-5-5-4-|
|-2-2-5-5-4-4---------2-2-3-3-4-4-5-5------------------------|
|-------------5-5-2-2----------------------------------------|

 |-----------------------------------------------------~-------|
 |------4-4-5-5-7-7--7-5-5-5-4-------------------------~-------|
 |-5-5-------------------------5>7--5--5-5-4--4>5--4--2~-------|
 |-------------------------------------------------------------|

Comentários 1

  • Luan Luan: Postado em 14/07/2014 22:01

    esses ">' quer significar oq slide?

Composição: Sabe quem é o compositor? Envie pra gente. Contribuição: Luís Silva Correções: binhopolemico »
publicidade
fechar