Cumpade e Cumade

Leandro & Leonardo

 Leandro & Leonardo
Tom: D
		
Intro:

                     A                       Bm
E|-------10----10----9----|-------9----------7-|
B|-10-10----10----10---10-|-10-10---10-10-11---|
G|------------------------|--------------------|
D|------------------------|--------------------|
A|------------------------|--------------------|
E|------------------------|--------------------|



                A                 D
E|------7---7---5---|-5-5---5-------|
B|--7-7---7---7---5-|---------8-8-7-|
G|------------------|---------------|
D|------------------|---------------|
A|------------------|---------------|
E|------------------|---------------|




                     A                       Bm
E|-------10----10----9----|-------9----------7-|
B|-10-10----10----10---10-|-10-10---10-10-11---|
G|------------------------|--------------------|
D|------------------------|--------------------|
A|------------------------|--------------------|
E|------------------------|--------------------|



                A                D
E|------7---7---5---|-5-5---5-7-9-10-|
B|--7-7---7---7---5-|----------------|
G|------------------|----------------|
D|------------------|----------------|
A|------------------|----------------|
E|------------------|----------------|


                       G
Veste a calça saint-tropez 
                           D
Que deixa o umbiguinho de fora
                   A
Entra na roda e rebola
                 Bm
Rebolando sem parar

        G                    D
É gera-gera-geração Coca-Cola 

                  A                
Molha a calça toda hora
                  D
De tanto se esfregar
                  G
Que saia de corpo baixo
                   D
De barriguinha de fora
                   A
Entra na roda e rebola
                 Bm
Rebolando sem parar

        G                 D
É gera-gera-geração anos sessenta

                    A 
Que quase se arrebenta 
                   D
De tanto se esfregar

         G                  A
Então requebra, esfrega, requebra
             Bm
Esfrega no cumpade
           G                A
Que ele levanta e acende, acende
             Bm
O fogo da cumade
         G                  A
Então requebra, esfrega, requebra
             Bm
Esfrega no cumpade
           G                A
Que ele levanta e acende, acende
             D
O fogo da cumade

           Bm                      A
E vai de frente requebrando, esfregando
                  Bm A
Rebolando até o chão
           Bm                     A
Vai de bundinha remexendo a cinturinha 
                     Bm A
Sem deixar cair no chão
           Bm                      A
E vai de frente requebrando, esfregando
                  Bm A
Rebolando até o chão
           Bm                     G
Vai de bundinha remexendo a cinturinha 
        A            D
Sem deixar cair no chão

* repete do começo ao fim
76.310 exibições

Comentários 0

Composição: Rivanil
Esse não é o compositor? Avise-nos.
Contribuição: Luisinho Correções: renan17 »
Exibir acordes »
publicidade
fechar