Não Aprendi Dizer Adeus

Leandro & Leonardo

 Leandro & Leonardo
Tom: G
		
Intro: C  G  D7  G (pausa)

Primeira Estrofe:

                    G (passagem)
Não aprendi dizer adeus
                    C
Não sei se vou me acostumar
                         D7
Olhando assim nos olhos teus

Sei que vai ficar nos meus
                 G (pausa)
A marca desse olhar

Segunda Estrofe:

                      G (passagem)
Não tenho nada pra dizer
                     C
Só o silêncio vai falar por mim
                        G
Eu sei guardar a minha dor
                  D7
Apesar de tanto amor vai ser
          G (passagem)
Melhor assim

Refrão:
                    C
Não aprendi dizer adeus
                   D
Mas tenho que aceitar
                  Bm
Que amores vêm e vão
               Em
São aves de verão
             D7
Se tens que me deixar
                  G (passagem)
Que seja, então, feliz
               
                    C
Não aprendi dizer adeus
               D
Mas deixo você ir
                   Bm
Sem lágrimas no olhar
                  Em
Se o adeus me machucar
                  D7
O inverno vai passar
           G (passagem)
E apaga a cicatriz

Intro: C  G  D7  G (pausa)

Segunda Estrofe:

                      G (passagem)
Não tenho nada pra dizer
                     C
Só o silêncio vai falar por mim
                        G
Eu sei guardar a minha dor
                  D7
Apesar de tanto amor vai ser
          G (passagem)
Melhor assim

Refrão:
                    C
Não aprendi dizer adeus
                   D
Mas tenho que aceitar
                  Bm
Que amores vêm e vão
             Em
São aves de verão
                   D7
Se tens que me deixar
                  G (passagem)
Que seja, então, feliz

                    C
Não aprendi dizer adeus
               D
Mas deixo você ir
                   Bm
Sem lágrimas no olhar
                Em
Se adeus me machucar
                  D7
O inverno vai passar
           G (passagem)
E apaga a cicatriz

                    C
Não aprendi dizer adeus
                   D
Mas tenho que aceitar
                  Bm
Que amores vêm e vão
             Em
São aves de verão
                   D7
Se tens que me deixar
                  G (passagem)
Que seja, então, feliz

                    C
Não aprendi dizer adeus
               D
Mas deixo você ir
                   Bm
Sem lágrimas no olhar
                Em
Se adeus me machucar
                  D7
O inverno vai passar
           G
E apaga a cicatriz


Solo Intro:

Parte 1


E|-2/3-3-3-3-3-3--3--2/3-3-3-3-3-3--6/7---------------|
B|----------------------------------------------------|
G|-3/4-4-4-4-4-4--5--4/5-5-5-5-5-5--6/7---------------|
D|----------------------------------------------------|
A|----------------------------------------------------|
E|----------------------------------------------------|


Parte 2


E|-10--8-7------7-5---10-10-7-7-5-5-3-----------------|
B|-12-10-8-10-8---------------------------------------|
G|---------11-9-7-5---11-11-7-7-5-5-4-----------------|
D|----------------------------------------------------|
A|----------------------------------------------------|
E|----------------------------------------------------|


Ritmo Intro:

Parte 1
   

   C
E|---0-0-0----0-0-0----0-0-0----0-0-0-------|
B|---1-1-1----1-1-1----1-1-1----1-1-1-------|
G|---0-0-0----0-0-0----0-0-0----0-0-0-------|
D|---2-2-2----2-2-2----2-2-2----2-2-2-------|
A|-3-----------------3----------------------|
E|----------3-----------------3-------------|


Parte 2
   

   G
E|---3-3-3----3-3-3----3-3-3----3-3-3-------|
B|---3-3-3----3-3-3----3-3-3----3-3-3-------|
G|---0-0-0----0-0-0----0-0-0----0-0-0-------|
D|---0-0-0--0-0-0-0----0-0-0--0-0-0-0-------|
A|------------------------------------------|
E|-3-----------------3----------------------|


Parte 3
   

   D7
E|---2-2-2----2-2-2----2-2-2----2-2-2-------|
B|---1-1-1----1-1-1----1-1-1----1-1-1-------|
G|---2-2-2----2-2-2----2-2-2----2-2-2-------|
D|-0-----------------0----------------------|
A|----------0-----------------0-------------|
E|------------------------------------------|


Parte 4 (pausa)
   

   G
E|---3-3-3----3-3-3--3----------------------|
B|---3-3-3----3-3-3--3----------------------|
G|---0-0-0----0-0-0--0----------------------|
D|---0-0-0--0-0-0-0--0----------------------|
A|-------------------2----------------------|
E|-3-----------------3----------------------|


Ritmo Primeira Estrofe:

Parte 1 (passagem)


   G
E|---3-3-3----3-3-3----3---3---3---3--------|
B|---3-3-3----3-3-3----3---3---3---3--------|
G|---0-0-0----0-0-0----0---0---0---0--------|
D|---0-0-0--0-0-0-0-------------------------|
A|---------------------------0---2----------|
E|-3-----------------3---3------------------|


Parte 2


   C
E|---0-0-0----0-0-0----0-0-0----0-0-0-------|
B|---1-1-1----1-1-1----1-1-1----1-1-1-------|
G|---0-0-0----0-0-0----0-0-0----0-0-0-------|
D|---2-2-2----2-2-2----2-2-2----2-2-2-------|
A|-3-----------------3----------------------|
E|----------3-----------------3-------------|


Parte 3
   

   D7
E|---2-2-2----2-2-2----2-2-2----2-2-2-------|
B|---1-1-1----1-1-1----1-1-1----1-1-1-------|
G|---2-2-2----2-2-2----2-2-2----2-2-2-------|
D|-0-----------------0----------------------|
A|----------0-----------------0-------------|
E|------------------------------------------|


Parte 4 (pausa)
   

   G
E|---3-3-3----3-3-3--3----------------------|
B|---3-3-3----3-3-3--3----------------------|
G|---0-0-0----0-0-0--0----------------------|
D|---0-0-0--0-0-0-0--0----------------------|
A|-------------------2----------------------|
E|-3-----------------3----------------------|


Ritmo Segunda Estrofe:

Parte 1 (passagem)


   G
E|---3-3-3----3-3-3----3---3---3---3--------|
B|---3-3-3----3-3-3----3---3---3---3--------|
G|---0-0-0----0-0-0----0---0---0---0--------|
D|---0-0-0--0-0-0-0-------------------------|
A|---------------------------0---2----------|
E|-3-----------------3---3------------------|


Parte 2


   C
E|---0-0-0----0-0-0----0-0-0----0-0-0-------|
B|---1-1-1----1-1-1----1-1-1----1-1-1-------|
G|---0-0-0----0-0-0----0-0-0----0-0-0-------|
D|---2-2-2----2-2-2----2-2-2----2-2-2-------|
A|-3-----------------3----------------------|
E|----------3-----------------3-------------|


Parte 3


   G                 D7
E|---3-3-3----3-3-3----2-2-2---2-2-2--------|
B|---3-3-3----3-3-3----1-1-1---1-1-1--------|
G|---0-0-0----0-0-0----2-2-2---2-2-2--------|
D|---0-0-0--0-0-0-0--0----------------------|
A|---------------------------0--------------|
E|-3----------------------------------------|


Parte 4 (passagem)


   G
E|---3-3-3----3-3-3----3---3---3---3--------|
B|---3-3-3----3-3-3----3---3---3---3--------|
G|---0-0-0----0-0-0----0---0---0---0--------|
D|---0-0-0--0-0-0-0-------------------------|
A|---------------------------0---2----------|
E|-3-----------------3---3------------------|


Ritmo refrão 2x:

Parte 1


   C                 D
E|---0-0-0----0-0-0----2-2-2----2-2-2-------|
B|---1-1-1----1-1-1----3-3-3----3-3-3-------|
G|---0-0-0----0-0-0----2-2-2----2-2-2-------|
D|---2-2-2----2-2-2--0----------------------|
A|-3--------------------------0-------------|
E|----------3-------------------------------|


Parte 2


   Bm                Em
E|---2-2-2----2-2-2----0-0-0----0-0-0-------|
B|---3-3-3----3-3-3----0-0-0----0-0-0-------|
G|---4-4-4----4-4-4----0-0-0----0-0-0-------|
D|---4-4-4----4-4-4----2-2-2----2-2-2-------|
A|-2--------------------------2-------------|
E|----------2--------0----------------------|


Parte 3
   

   D7
E|---2-2-2----2-2-2----2-2-2----2-2-2-------|
B|---1-1-1----1-1-1----1-1-1----1-1-1-------|
G|---2-2-2----2-2-2----2-2-2----2-2-2-------|
D|-0-----------------0----------------------|
A|----------0-----------------0-------------|
E|------------------------------------------|


Parte 4 (passagem)


   G
E|---3-3-3----3-3-3----3---3---3---3--------|
B|---3-3-3----3-3-3----3---3---3---3--------|
G|---0-0-0----0-0-0----0---0---0---0--------|
D|---0-0-0--0-0-0-0-------------------------|
A|---------------------------0---2----------|
E|-3-----------------3---3------------------|

Comentários 20

  • Renato Renato: Postado em 28/03/2015 - 17:26

    Muito bom esse arranjo! Parabéns Leo!

  • Rosana Rosana: Postado em 05/01/2015 12:01

    boa de tocar

  • gustavo gustavo : Postado em 16/11/2014 20:36

    fica boa no tom de mi maior

  • matheus.salvianogoncalves matheus.salvianogoncalves: Postado em 29/04/2014 12:24

    musica muito linda
    e pra quem quiser saber um BATIDO legal e muito facil pra essa musica e esse
    b-c-b-c-b ñ e guarãnia

  • jorge.gomes.5494 jorge.gomes.5494: Postado em 31/01/2014 22:47

    quais as baidas da música_
    ?

    • Gustavo Gustavo: Postado em 05/02/2014 21:46

      Comentário removido

    • Gustavo Gustavo: Postado em 05/02/2014 21:47

      Batidas
      b-c-c-b-c-c-b-b-c

      b = baixo
      c = cima

  • marina marina: Postado em 22/07/2013 09:40

    toda vez que eu escuto esta musica eu lembro do meu primo victor emanuel

  • natan natan: Postado em 05/02/2013 21:55

    muito boa de tocar simple mais bela musica

  • ronaldojunior ronaldojunior: Postado em 23/01/2013 05:11

    da pra usa xote PBPCB o tempo pegam ouvindo a musica e da tbm assim BCBC ea 3 pancada eh mais forte

Exibindo 10 de 20 comentários Mostrar mais ver todos »
Composição: Joel Marques
Esse não é o compositor? Avise-nos.
Contribuição: Manu Correções: Leo Eymard , TiagooGuitar e mais 3 »
Exibir acordes »
publicidade
fechar