Black Dog

Led Zeppelin

 Led Zeppelin
Tom: E
		
Triple Tracked Elec plays main riffs:


E|---------------------------------------------------------------------------
B|---------------------------------------------------------------------------
G|-----------5^6----7-9--5h7p5------5^6--------------------------------------
D|---5-6-7-------7--------------7-7-----5--5-7-7-----------2-2---------------
A|-7-------7--------------------------------------5-7--3-5-0-0---------------
E|---------------------------------------------------------------------------



E|---------------------------------------------------------------------------
B|---------------------------------------------------------------------------
G|---------------------------------------------------------------------------
D|-----------5^6--------------5^6--------------5^6---------------------------
A|---5-6-7-------7----5-6-7-------7----5-6-7-------7----5-6-7-5*-------------
E|-7-------7--------7-------7--------7-------7--------7----------------------

*Back to first riff

During the "Oh YEah...oh yeah!" part:


E|---------------------------------------------------------------------------
B|---------------------------------------------------------------------------
G|------2-4^6^4p2-4-2----------2-4^6^4p2-4-2--------------2-4^6^4p2----------
D|---2----------------------2---------------------2--5--2-----------4-2------
A|-3-0------------------3^4-0-----------------3^4-0--3--0--------------------
E|---------------------------------------------------------------------------



E|---------------------------------------------------------------------------
B|---------------------------------------------------------------------------
G|---------2-4^6^4p2--4-2--------2-4^6^4p2-4-2----------------2--------------
D|------2----------------------2-------------------2--5--2----2--------------
A|--3^4-0------------------3^4-0---------------3^4-0--3--0-------------------
E|----------------------------------------------------------3^5--------------


On the last verse, the main riff is doubled with this:


E|---------------------------------------------------------------------------
B|----0-1-2----4^5--2--7-9--5h7p5--2-2--4^5--2--0-2-2------------------------
G|--2-0-1-2-2--5^6--2--7-9--5h7p5--2-2--5^6--2--0-2-2--0-2-2-------2-2-------
D|--2-------2------------------------------------------0-2-2--2/4--2-2-------
A|------------------------------------------------------------3/5--0-0-------
E|---------------------------------------------------------------------------


This is during the "Hey Baby, Pretty Babay" part and backs the solo:


E|-----------------------------------------3---2-----------------------------
B|-----------------------------------------3---3-----------------------------
G|------2----2------2--5--2------2----2----0---2-----------------------------
D|------2----2------2--5--2------2----2----0---0-----------------------------
A|------0----0------0--3--0------0----0--------------------------------------
E|--2^3----2----3^4----------2^3----2----------------------------------------


The second time in the song that part is doubled with this:


E|----------------------------------------------------------3--2-------------
B|----------------------------------------------------------3--3-------------
G|---6--4------6---4---6--4--6--6/-9--6-------6--4---6--4---0--2-------------
D|---7--5------7---5---7--5--7--7/10--7-------7--5---7--5---0--0-------------
A|---------------------------------------------------------------------------
E|---------------------------------------------------------------------------



Heres the solo to Black Dog:



E|----------------------------------------------5---------------------5--------
B|-----------------------------------------------------------------------------
G|-----------------------------------2---2--4/6--------------2--2-4/6----------
D|-------------------------------2-4---4-----------------2-4--4----------------
A|--------0-2^3-0-----0---0--2/4-------------------0-2-4-----------------------
E|-2--0h2---------2-0-0--------------------------------------------------------



E|---------------------5------------------------------------------5------------
B|-----------------------------3-----------------------------------------------
G|-----------2---2-4/6-----5^7---5-4-2---2h4------------2---2-4/6--------------
D|-------2-4---4-----------------------4------------2-4---4--------------------
A|-0-2-4--------------------------------------0-2-4----------------------------
E|-----------------------------------------------------------------------------



E|---------------------5----------------------5--------------------------------
B|---------------------------------------------------3-------------------------
G|-----------2---2-4/6--------------2---2-4/6----5^7---5-4-2---2h4-------------
D|-------2-4---4----------------2-4---4----------------------4-----------------
A|-0-2-4------------------0-2/4------------------------------------------------
E|-----------------------------------------------------------------------------



E|-------5---5-7^9-7-5---5--------8-10--10^11-10^12--(10)^12^10p8--10-10^12^10-
B|-------5-7-----------5---5-8/10----------------------------------------------
G|-2-4/6-----------------------------------------------------------------------
D|-----------------------------------------------------------------------------
A|-----------------------------------------------------------------------------
E|-----------------------------------------------------------------------------



E|-8--10^12--8-----8-------10^12-10-8-10^12^10-------15------------------------
B|-------------10-------10------------------------15^17--(15)^17^15p13--15^17--
G|----------------------------------------------0------------------------------
D|-----------------------------------------------------------------------------
A|-----------------------------------------------------------------------------
E|-----------------------------------------------------------------------------



E|-------------------------------17------------17-----------20---------20------
B|--15-13---15^17--13-----------------------17-----20^21^22----(20)^22^20--17--
G|--------0----------------19^21------19^21------------------------------------
D|--------------------12-------------------------------------------------------
A|-----------------------------------------------------------------------------
E|-----------------------------------------------------------------------------



E|--------17--------------------------------------------------20---------------
B|-----------20-17-20^22---(20)^22^20--17-----20--------20^22-----(20)^22^20-17
G|-19^21-----------------------------------19^21^19^21-------------------------
D|-----------------------------------------------------------------------------
A|-----------------------------------------------------------------------------
E|-----------------------------------------------------------------------------



E|--------------------------------------5------------5------------5------------
B|------------------------------------5---8p5------5---8p5------5---8p5--------
G|-19^21--19--17-----19-17^18---5/7^9----------7^9----------7^9----------------
D|----------------19-----------------------------------------------------------
A|-----------------------------------------------------------------------------
E|-----------------------------------------------------------------------------



E|-------5------------5------------5-------------------------------------------
B|-----5---8p5------5---8p5------5---8p5-8p5---5-------------------------------
G|-7^9----------7^9----------7^9-------------7---7-5---7-5-5^6--------5--------
D|---------------------------------------------------7----------7-5-7---7------
A|-----------------------------------------------------------------------------
E|-----------------------------------------------------------------------------



E|-----------------------------------------------------------------------------
B|-------------------------------------------8---------------------------------
G|--5--7^9-------5--5^6-5^6--7--7^9--7-5---5---7^9-7-5---5/7--------5-------5--
D|-------------7-------------------------7-------------7------5-6-7---5-6-7----
A|-----------------------------------------------------------------------------
E|-----------------------------------------------------------------------------



E|---------------------------------------------------------------------------5-
B|-----------------------------------------------------------------------------
G|-------5/7--------5-------5/7-------5----------------------------2---2-4/6---
D|-5-6-7------5-6-7---5-6-7-----5-6-7---5-6-7------------------2-4---4---------
A|--------------------------------------------7-5-3-4------3h4-----------------
E|----------------------------------------------------5\3----------------------



E|------------------------5----------------------------------------------------
B|-----------------------------------------------------------------------------
G|--------------2---2-4/6----7-----------2---2-4/6-0---------------------------
D|----------2-4---4------------------2-4---4--------------4-0------------------
A|--0--3h4---------------------0-2/4------------------3h4-----3-4-0------------
E|------------------------------------------------------------------3\2--------



E|----------------------5-5--------8-8---10^12--10-10^12-10-10^12-10-8-10-10^12
B|---------------------------8/10----8-----------------------------------------
G|------------2---2-4/6--------------------------------------------------------
D|--------2-4---4--------------------------------------------------------------
A|--0-2/4----------------------------------------------------------------------
E|-----------------------------------------------------------------------------


E|--8--8^9-----8-------------------------------------------15------------------
B|----------10-----10---13^17^13---10--13^17^13--10-----------15^17--15-13-----
G|---------------------------------------------------14-14-----------------14--
D|-----------------------------------------------------------------------------
A|-----------------------------------------------------------------------------
E|-----------------------------------------------------------------------------
	-			FADE OUT
E|--------------------------15-------------------------------------------------
B|-13h15--13----13h15---13------15^17------------------------------------------
G|-----------14----------------------------------------------------------------
D|-----------------------------------------------------------------------------
A|-----------------------------------------------------------------------------
E|-----------------------------------------------------------------------------



Subject: TAB: Intro of Black Dog solo (Led Zeppelin)

Ok, I've never seen anybody post this eighther, and it plagued me
until I finally (hopefully) figured it out this summer..



E|------------------------5-
B|------------------3^4^5---
G|------------2---2---------
D|--------2-4---4-----------
A|--0-3^4-------------------
E|--------------------------



Incidentally, Page uses this lick at the beggining of his accompanied
solo on 'Heartbreaker'.

Most of the rest of the solo to Black Dog is fairly straight forward..

Comentários 15

  • Rodrigo Rodrigo: Postado em 07/09/2014 22:01

    Video aula !!!!!

  • will.bianchini will.bianchini: Postado em 03/03/2014 21:06

    o que significam esses "chapeuzinhos"? tipo: 4^6^4p2

  • wesley.feitosa.1 wesley.feitosa.1: Postado em 08/10/2013 09:54

    Rock de verdade isso sim'

  • victor.c.silva1996 victor.c.silva1996: Postado em 28/09/2013 18:27

    Pentablues puro.

  • Igor Igor: Postado em 23/08/2013 17:42

    merece vídeo aula!!!!!!!!!!!!!!!!!!!!!!!!!!!!!!!!!!!!!!!!!!! e um dos classicos do ROCK

  • bruna.gomes.39501 bruna.gomes.39501: Postado em 17/07/2013 15:27

    Acho bem mais facil fazer o pent'blues do que essa tab ai , so vim por causa do solo -p

  • renatez renatez: Postado em 04/01/2013 18:48

    Muito loka!!!

  • dprod dprod: Postado em 31/12/2012 18:48

    ta faltando video aula!!!!!!!!!!!!!!!!

Exibindo 10 de 15 comentários Mostrar mais ver todos »
Composição: Jimmy Page / John Paul Jones / L. Christy / Lars Ulrich / Per Lindholm / Robert Plant
Esse não é o compositor? Avise-nos.
Contribuição: rodrigo.brito.9421
Exibir acordes »
publicidade
fechar