D'yer Maker

Led Zeppelin

 Led Zeppelin
Tom: C
		
Riff 1:


        C                   Am               F               G
E|--------8---10s12--|-------5---7s8---|-------1--3s5--|-------3--5s7|
B|-------------------|-----------------|---------------|-------------|
G|----9-9---9-10s12--|---5-5---5-7s8---|---2-2--3-3s5--|---4-4--4-5s7|
D|---10--------------|---6-------------|---3-----------|---5---------|
A|-------------------|-----------------|---------------|-------------|
E|-------------------|-----------------|---------------|-------------|


Riff 2:


E|-5~~-----------------------------------------------------|
B|-5~~-----------------------------------------------------|
G|-5~~-------------5-5---------5-5-------------------------|
D|-7~~-----------5-5-5-----5h7-5-5----5--------------------|
A|-7~~-------5h7-----------5h7-----5h7-5-------------------|
E|-5~~-----------------------------------------------------|


Riff 3:


       Am                            G
E|-------------------------------------------------------------------|
B|-------------------------------------------------------------------|
G|-------------------------------------------------------------------|
D|-7-7--7-7---7-7--7-7-7-7-7-----5-5--5-5--5-5--5-5-5-5-5------------|
A|-7-7--7-7---7-7--7-7-7-7-7-----5-5--5-5--5-5--5-5-5-5-5------------|
E|-5-5--5-5---5-5--5-5-5-5-5-----3-3--3-3--3-3--3-3-3-3-3------------|


Riff 4:


        F                                        G
E|----------------------------------------|--------------------------|
B|-----1------1------1------1------1------|--3-------6-------5-----3-|
G|-------2------2------2------2------2----|----4---4---4---4---4-----|
D|--3------3------3------3------3------3--|------5-------5-------5---|
A|----------------------------------------|--------------------------|
E|----------------------------------------|--------------------------|


Intro: C  Am  F  G

Verso:
     C         Am     F    G                 C
     Oh, oh-oh-oh, oh-oho, you don't have to go

        Am    F    G                 C
     Oh-oh-oh-oho, you don't have to go


        Am    F    G                 Am
     Oh-oh-oh-oho, baby please don't go


     Aye, ah-ah-ah, ah-aye, all those tears I cried

     Ah-ah-ah-aye, all those tears I cried

     Oh-oh, ah-aye, baby please don't go

Refrão:
     Am                         G
     When I read the letter you wrote me
     It made me mad, mad, mad
     Am                            G
     When I read the words that it told me
     It made me sad, sad, sad
     Am                       G
     But I still love you so, I can't let you go
     F             G
     I love you... Ooh, baby I love you

     Oh, oh-oh-oh, oh-oho, every breath I take

     Oh-oh-oh-oho, ooh every move I make hey-hey

     Ooh baby please don't go

     Aye, ah-ah-ah, ah-aye, it hurts me to my soul

     Oh-oh-oh-oho, you hurt me to my soul, oho

     Darling please don't go

     When I read the letter you sent me
     It made me mad, mad, mad
     When I read the news that it brought me
     It made me sad, sad, sad
     But I still love you so, I can't let you go
     I love you... Ooh, baby I love you

Solo:


E|-------------------------------------------------10b12~--10-8------|
B|------------5--6b8-6-5----------8-10b12-10b12-10-8-----------------|
G|--7b9~~--7-------------7-----/9------------------------------------|
D|-------------------------7~~---------------------------------------|
A|-------------------------------------------------------------------|
E|-------------------------------------------------------------------|



E|-10b12--10-8-------------------------------------------------------|
B|--------------8b10~~~r8----------------------------------8-10b12---|
G|------------------------7b9r7p5---5~~--7b9r7p5---5~~---------------|
D|--------------------------------7--------------7-------------------|
A|-------------------------------------------------------------------|
E|-------------------------------------------------------------------|



E|--------------10b12~~----------------------------------------------|
B|--10b12-10-8-------------------------------------------------------|
G|-------------------------------------------------------------------|
D|-------------------------------------------------------------------|
A|-------------------------------------------------------------------|
E|-------------------------------------------------------------------|


     Oh, oh-oh-oh, oh-oho, you don't have to go

     Oh-oh-oh-oho, you don't have to go
     Oh-oh-oh-oho, ooh baby baby, please, please, please, please


     Oh-oh, oh-oh, oh-oh baby, oh-oh I really love you baby
     Ooh-ooh, ooh-ooh, ooh-ooh darling
     Oh baby I still love you so
     ...repeat to fade

Correção: voc98
Texto Colunas
Alterar tom ½ tom ½ tom
afinação acordes na letra esconder tabs mais »

Comentários 6

  • marcos marcos: Postado em 11/08/2013 11:16

    concordo da mesmo é so ter um pouco de conhecimento tecnico praticar devagar todos chegam lá

  • lincks lincks: Postado em 10/07/2013 19:11

    na moral esta ótima
    mas tem algo errado com o solo nao tem ?

  • brasilrafael brasilrafael: Postado em 23/08/2012 21:04

    é led na veia hard rock !!!!!

  • anderson7guitar anderson7guitar: Postado em 08/08/2012 01:33

    Sem video aula consegui tocar.

  • Nelson Nelson: Postado em 14/06/2011 18:29

    não é difícil, cara...
    da pra tirar fácil sem video aula.

  • vinivargas vinivargas: Postado em 02/01/2011 18:28

    Faz video aula de violão dessa música?
    *---*
    plz .. plz ..

Composição: Jimmy Page / John Bonham / John Paul Jones / Robert Plant
Esse não é o compositor? Avise-nos.
Contribuição: caah_caah Correções: Victor e mais 1 »
  1. Até Você Voltar - Henrique e Juliano Manteve-se 102.034 exibições
  2. Domingo de Manhã - Marcos e Belutti Manteve-se 81.869 exibições
  3. Cuida Bem Dela - Henrique e Juliano Manteve-se 50.189 exibições
  4. Recaídas - Henrique e Juliano Manteve-se 44.256 exibições
  5. Pra Você - Onze:20 Manteve-se 42.541 exibições
  6. Só Os Loucos Sabem - Charlie Brown Jr. Manteve-se 34.011 exibições
  7. Logo Eu - Jorge e Mateus Manteve-se 31.686 exibições
  8. Pais e Filhos - Legião Urbana Manteve-se 31.441 exibições
  9. Raridade - Anderson Freire Manteve-se 30.984 exibições
  10. Aonde Quer Que Eu Vá - Os Paralamas do Sucesso Manteve-se 24.850 exibições
  1. Henrique e Juliano- Manteve-se 278.305 exibições
  2. Jorge e Mateus- Manteve-se 233.694 exibições
  3. Legião Urbana- Manteve-se 204.598 exibições
  4. Charlie Brown Jr.- Manteve-se 158.541 exibições
  5. Bruno e Marrone- Manteve-se 127.852 exibições
  6. Fernandinho- Manteve-se 121.372 exibições
  7. Luan Santana- Manteve-se 102.569 exibições
  8. Marcos e Belutti- Manteve-se 100.360 exibições
  9. The Beatles- Manteve-se 94.130 exibições
  10. Thalles Roberto- Manteve-se 93.705 exibições
Exibir acordes »

Cifras e tabs

Fórum Cifra Club

Aprenda

Cifra Club News

Mais Serviços Cifra Club ID

Studio Sol

©1996 - 2014 Cifra Club · o primeiro, maior e mais acessado do Brasil · 339 mil músicas · 6.3 milhões pessoas cadastradas

publicidade
fechar