Moby Dick

Led Zeppelin

 Led Zeppelin
      afinação
      4321
      EADG

G|----------------|----------------|
D|----------------|----------------|
A|----------------|----------------|
E|----------------|----------------|

G|--7-75----------|--7-75----------|--7-75----------|--7-75----------|
D|0-----73--53-5-3|0-----73--53-5-3|0-----73--53-5-3|0-----73--53-5-3|
A|----------------|----------------|----------------|----------------|
E|----------------|----------------|----------------|----------------|

G|----------------|----------------|--7-75----------|--7-75----------|
D|--5-53----------|--5-53----------|0-----73--53-5-3|0-----73--53-5-3|
A|------51--31-3-1|------51--31-3-1|----------------|----------------|
E|3---------------|3---------------|----------------|----------------|

G|----------------|-------57-5-----|
D|7---75-7-7--5-7-|555553-----75---|
A|--0---7----7----|------5------8--|
E|----------------|----------------|

G|--7-75----------|--7-75----------|--7-75----------|----------------|
D|0-----73--53-5-3|0-----73--53-5-3|0-----73--53-5-3|0---------------|
A|----------------|----------------|----------------|----------------|
E|----------------|----------------|----------------|----------------|

G|--7-75----------|----------------|----------------|----------------|
D|0-----73--53-5-3|0---------------|--5-53----------|----------------|
A|----------------|----------------|------51--31-3-1|----------------|
E|----------------|----------------|3---------------|3---------------|

G|--7-75----------|----------------|----------------|-------7-75-----|----------------|
D|0-----73--53-5-3|0---------------|--7775-7-7--5577|555553-----75---|0---------------|
A|----------------|----------------|0-----7----7----|------5------8--|----------------|
E|----------------|---------02-23-4|----------------|----------------|----------------|

Solo de bateria

G|--7-75----------|----------------|----------------|----------------|
D|0-----73--53-5-3|0---------------|--5-53----------|----------------|
A|----------------|----------------|------51--31-3-1|----------------|
E|----------------|----------------|3---------------|3---------------|

G|----------------|-------7-75-----|----------------|----------------|
D|--7-75---7--557-|555553-----75---|----------------|----------------|
A|0-----7----7----|------5------8--|5-------3-------|0---------------|
E|----------------|----------------|----------------|----------------|
  



_______________________________________________________
Contribuição: Caio Mac Cord(caiomaccord@hotmail.com)

Comentários 0

Composição: Jimmy Page / John Bonham / John Paul Jones / L. Christy / Nelson Rufino
Esse não é o compositor? Avise-nos.
502 Bad Gateway

502 Bad Gateway


nginx
502 Bad Gateway

502 Bad Gateway


nginx
publicidade
fechar