Eduardo e Mônica

Legião Urbana

 Legião Urbana
Introdução 2x:

G|-------------------------|
D|-------------------------|
A|-------2/4-5-----------2-|
E|-0-4-5-------2-0-0/4-5---|

Versos 2x:
G|---------------------------------------------|
D|---------------------------------------------|
A|-----------------2-4-4-4/5-4-4/7-7-7-7-7-5-7-|
E|---0-4-5-3-5-3-5-----------------------------|

Quem um dia irá dizer que existe razão nas coisas feitas pelo coração
E quem irá dizer que não existe razão

G|----------------------------------------------|
D|-----------2-0--------------------------------|
A|-2-0---0/2-----2-0/2--------------------------|
E|-----3---------------3/5-5-5-4/5-----0-0-0-0--|

Eduardo abriu os olhos mas não quis se levantar Ficou deitado e viu que horas eram

G|--------------------------------------------------|
D|-----------2-0------------------------------------|
A|-2-0---0/2-----2-0/2------------------------------|
E|-----3---------------3/5-5-5-4/5-----7-7-7-7-5-7--|

Enquanto Mônica tomava um conhaque noutro canto da cidade como eles disseram


Virada:
G|---------|
D|---------|
A|-2-0-----|
E|-----3-2-|

(2x)
G|-------------------------|
D|-------------------------|
A|-------2/4-5-----------2-|
E|-0-4-5-------2-0-0/4-5---|

Eduardo e Mônica um dia se encontraram sem querer
E conversaram muito mesmo para tentar se conhecer
Foi um carinha do cursinho do Eduardo que disse
- Tem uma festa legal, a gente quer se divertir


G|--------------------------------------|
D|--------------------------------------|
A|-------------5-5-5-4/5-7-7-7-7-7-7-7--|
E|---0----5-----------------------------|

Festa estranha com gente esquisita
- Eu não tô legal, não aguento mais birita

G|----------------------------------------------|
D|-----------2-0--------------------------------|
A|-2-0---0/2-----2-0/2--------------------------|
E|-----3---------------3/5-5-5-4/5-----0-0-0-0--|

E a Mônica riu e quis saber um pouco mais
Sobre o boyzinho que tentava impressionar

G|--------------------------------------------------|
D|-----------2-0------------------------------------|
A|-2-0---0/2-----2-0/2------------------------------|
E|-----3---------------3/5-5-5-4/5-----7-7-7-7-5-7--|

E o Eduardo meio tonto só pensava em ir para casa
- É quase duas, eu vou me ferrar


Virada:
G|---------|
D|---------|
A|-2-0-----|
E|-----3-2-|

(2x)
G|-------------------------|
D|-------------------------|
A|-------2/4-5-----------2-|
E|-0-4-5-------2-0-0/4-5---|

Eduardo e Mônica trocaram telefone, depois telefonaram
E decidiram se encontrar
O Eduardo sugeriu uma lanchonete
Mas a Mônica queria ver o filme do Godard


G|----------------------------------------------|
D|-----------2-0--------------------------------|
A|-2-0---0/2-----2-0/2--------------------------|
E|-----3---------------3/5-5-5-4/5-----0-0-0-0--|

Se encontraram, então, no parque da cidade
A Mônica de moto e o Eduardo de camelo

G|--------------------------------------------------|
D|-----------2-0------------------------------------|
A|-2-0---0/2-----2-0/2------------------------------|
E|-----3---------------3/5-5-5-4/5-----7-7-7-7-5-7--|

O Eduardo achou estranho e melhor não comentar
Mas a menina tinha tinta no cabelo

Virada:
G|---------|
D|---------|
A|-2-0-----|
E|-----3-2-|

(6x)  
G|-------------------------|
D|-------------------------|
A|-------2/4-5-----------2-|
E|-0-4-5-------2-0-0/4-5---|

Eduardo e Mônica eram nada parecidos
Ela era de leão e ele tinha dezesseis
Ela fazia medicina e falava alemão
E ele ainda nas aulinhas de inglês
Ela gostava do Bandeira e do Bauhaus
De Van Gogh e dos Mutantes, de Caetano e de Rimbaud
E o Eduardo gostava de novela e jogava futebol de botão
com seu avô

Ela falava coisas sobre o planalto central, também
magia e meditação
E o Eduardo ainda estava no esquema
escola-cinema-clube-televisão

G|----------------------------------------------|
D|-----------2-0--------------------------------|
A|-2-0---0/2-----2-0/2--------------------------|
E|-----3---------------3/5-5-5-4/5-----0-0-0-0--|

E mesmo com tudo diferente veio mesmo de repente uma vontade de se ver

G|--------------------------------------------------|
D|-----------2-0------------------------------------|
A|-2-0---0/2-----2-0/2------------------------------|
E|-----3---------------3/5-5-5-4/5-----7-7-7-7-5-7--|

E os dois se encontravam todo dia e a vontade crescia como tinha que ser

Virada:
G|---------|
D|---------|
A|-2-0-----|
E|-----3-2-|

(2x)
G|-------------------------|
D|-------------------------|
A|-------2/4-5-----------2-|
E|-0-4-5-------2-0-0/4-5---|

Eduardo e Mônica fizeram natação,
fotografia, teatro e artesanato e foram viajar
A Mônica explicava pro Eduardo coisas sobre o céu, a terra, a água e o ar

G|--------------------------------------------|
D|--------------------------------------------|
A|---------------4/5-5-5-4/5-5-7-7-7-7-7-5-7--|
E|-0-0-0-4/5-5-5------------------------------|

Ele aprendeu a beber, deixou o cabelo crescer e decidiu trabalhar

G|-------------------------------------|
D|-------------------------------------|
A|-------4/5-5-5-5-4/5---7-7-7-7-7-5-7-|
E|-0-4-5-------------------------------|

E ela se formou no mesmo mês que ele passou no vestibular

(2x)
G|----------------------------------|
D|----------------------------------|
A|--------5-5-4-5-4-5/7-7-7-7-7-5-7-|
E|-0-4-5----------------------------|

E os dois comemoraram juntos e também brigaram juntos muitas vezes depois
E todo mundo diz que ele completa ela
E vice-versa, que nem feijão com arroz

G|----------------------------------------------|
D|-----------2-0--------------------------------|
A|-2-0---0/2-----2-0/2--------------------------|
E|-----3---------------3/5-5-5-4/5-----0-0-0-0--|

Construíram uma casa uns 2 anos atrás
Mais ou menos quando os gêmeos vieram

G|--------------------------------------------------|
D|-----------2-0------------------------------------|
A|-2-0---0/2-----2-0/2------------------------------|
E|-----3---------------3/5-5-5-4/5-----7-7-7-7-5-7--|

Batalharam grana, seguraram legal a barra mais pesada que tiveram


Virada:
G|---------|
D|---------|
A|-2-0-----|
E|-----3-2-|

(2x)
G|-------------------------|
D|-------------------------|
A|-------2/4-5-----------2-|
E|-0-4-5-------2-0-0/4-5---|

Eduardo e Mônica voltaram para Brasília
E a nossa amizade dá saudade no verão

G|--------------------------------------|
D|--------------------------------------|
A|-------------5-5-5-4/5-7-7-7-7-7-7-7--|
E|---0----5-----------------------------|

Só que nessas férias não vão viajar
Porque o filhinho do Eduardo tá de recuperação

G|-------------------------|---------------------------------------------|
D|-------------------------|---------------------------------------------|
A|-------2/4-5-----------2-|-----------------2-4-4-4/5-4-4/7-7-7-7-7-5-7-|
E|-0-4-5-------2-0-0/4-5---|---0-4-5-3-5-3-5-----------------------------|


(2x)
G|---------------------------------------------|
D|---------------------------------------------|
A|-----------------2-4-4-4/5-4-4/7-7-7-7-7-5-7-|
E|---0-4-5-3-5-3-5-----------------------------|

E quem um dia irá dizer que existe razão nas coisas feitas pelo coração
E quem irá dizer que não existe razão

             (10x)             |  
G|-----------------------------|---------------------------------------------|
D|-----------------------------|---------------------------------------------|
A|-5-5-5-4/5-5-5/7-7-7-7-7-7-7-|--2-2--2-------------------------------------|
E|-----------------------------|---------5-5--5-4-4--4-2-2-0-0-0-0-0-0-0-0-0-|

Comentários 0

Composição: Renato Russo
Esse não é o compositor? Avise-nos.
Contribuição: rds
publicidade
fechar