Legião Urbana

Índios

2.572.753 exibições
Tom: G
Intro Primeira Parte 3x: G  D

Intro Segunda Parte: Am7  D11  Bm  Em  Am  D7  Bm  Em7

Primeira Parte:

Am7
    Quem me dera ao menos uma vez
        D11
Ter de volta todo o ouro

Que entreguei a quem
      Bm7
Conseguiu me convencer 

Que era prova de amizade
      Em
Se alguém levasse embora

Até o que eu não tinha

Am7
    Quem me dera ao menos uma vez
      D11
Esquecer que acreditei 

Que era por brincadeira
     Bm7
Que se cortava sempre um pano de chão
    Em
De linho nobre e pura seda

Am7
    Quem me dera ao menos uma vez
      D11
Explicar o que ninguém 

Consegue entender
            Bm7
Que o que aconteceu ainda está por vir
       Em
E o futuro não é mais 

Como era antigamente

Am7
    Quem me dera ao menos uma vez
    D11
Provar que quem tem mais 

Do que precisa ter
       Bm7
Quase sempre se convence 

Que não tem o bastante
 Em
Fala demais por não ter nada a dizer

Am7
    Quem me dera ao menos uma vez
            D11
Que o mais simples fosse visto

Como o mais importante
Bm7
    Mas nos deram espelhos 
   Em
E vimos um mundo doente

Am7
    Quem me dera ao menos uma vez
      D11
Entender como um só Deus 

Ao mesmo tempo é três
        Bm7
E esse mesmo Deus foi morto por vocês
        Em
Sua maldade, então

Deixaram Deus tão triste

Segunda Parte:

C  G7M/B        Am7
   Eu quis o perigo
           D/F#          G
E até sangrei sozinho entenda
   D/F#                    Em
Assim pude trazer você de volta pra mim
        C
Quando descobri que é sempre só você
          D11       G        D/F#
Que me entende do início ao fim

Em
   E é só você que tem 
   C
A cura pro meu vício de insistir
          D11
Nessa saudade que eu sinto
                F11+      G
De tudo que eu ainda não vi

(repete segunda parte da intro)

Terceira Parte:

Am7
    Quem me dera ao menos uma vez
       D11
Acreditar por um instante 

Em tudo que existe
     Bm7
E acreditar que o mundo é perfeito
       Em
E que todas as pessoas são felizes

Am7
    Quem me dera ao menos uma vez
   D11
Fazer com que o mundo 

Saiba que seu nome
   Bm7
Está em tudo e mesmo assim
    Em
Ninguém lhe diz ao menos obrigado

Am7
    Quem me dera ao menos uma vez
D11
    Como a mais bela tribo
Bm7
    Dos mais belos índios
     Em
Não ser atacado por ser inocente

Segunda Parte:

C  G7M/B        Am7
   Eu quis o perigo
           D/F#          G
E até sangrei sozinho entenda
   D/F#                    Em
Assim pude trazer você de volta pra mim
        C
Quando descobri que é sempre só você
          D11       G        D/F#
Que me entende do início ao fim

Em
   E é só você que tem 
   C
A cura pro meu vício de insistir
          D11
Nessa saudade que eu sinto
                F11+      G
De tudo que eu ainda não vi

Final:

C
  Nos deram espelhos 
                   F11+  G
E vimos um mundo doente
                             (final)
Tentei chorar e não consegui

Intro Primeira Parte:

Parte 1


   G
E|-3---3--------5-x-7-----------------------|
B|-0-0-------0----x-------------------------|
G|-0-0-----0-0--5-x-7-----------------------|
D|-5-----0--------x-5-----------------------|
A|--------------3-x-------------------------|
E|------------------------------------------|

     ↓       ↓

Parte 2


   D            D11
E|-2---2-----0------------------------------|
B|---3----------3---3-----------------------|
G|-2-2-----2-0----0-------0-----------------|
D|-0------------4-4-----4-4-----------------|
A|-------0------5-----0---------------------|
E|------------------------------------------|

     ↓            ↓       ↓

Intro Segunda Parte:

Parte 1   


   Am7
E|---3-2-3----3-2-3----3-2-3----3-2-3-------|
B|-----1--------1--------1--------1---------|
G|-----0--------0--------0--------0---------|
D|------------------------------------------|
A|-0--------2--------3----------------------|
E|----------------------------3-------------|

       ↓        ↓        ↓        ↓

Parte 2


  D11
E|---5-3-5----5-3-5----5-3-5----5-3-5-------|
B|-----3--------3--------3--------3---------|
G|-----0--------0--------0--------0---------|
D|-----4--------4--------4--------4---------|
A|-5--------0--------5--------0-------------|
E|------------------------------------------|

       ↓        ↓        ↓        ↓

Parte 3


   Bm
E|---7-5-7----7-5-7----7-5-7----7-5-7-------|
B|-----0--------0--------0--------0---------|
G|-----7--------7--------7--------7---------|
D|------------------------------------------|
A|------------------------------------------|
E|-7--------7--------7--------7-------------|

       ↓        ↓        ↓        ↓

Parte 4


   Em
E|---7-5-7----7-5-7----7-5-7----7-5-7-------|
B|-----5--------5--------5--------5---------|
G|-----0--------0--------0--------0---------|
D|------------------------------------------|
A|------------------------------------------|
E|-0--------7--------0--------7-------------|

       ↓        ↓        ↓        ↓

Parte 5


   Am
E|---8-7-8----8-7-8----8-7-8----8-7-8-------|
B|-----8--------8--------8--------8---------|
G|-----0--------0--------0----0---0---------|
D|------------------------------------------|
A|-0----------------------------------------|
E|----------7--------8----------------------|

       ↓        ↓        ↓        ↓

Parte 6


   D7
E|---8-7-8----8-7-8----8-7-8----8-7-8-------|
B|-----7--------7--------7--------7---------|
G|-----7--------7--------7--------7---------|
D|-0-----------------0----------------------|
A|----------0-----------------0-------------|
E|------------------------------------------|

       ↓        ↓        ↓        ↓

Parte 7


   Bm
E|--10-8-10---10-8-10---10-8-10---10-8-10---|
B|-----7---------7---------7---------7------|
G|-----7---------7---------7---------7------|
D|------------------------------------------|
A|----------9-------------------9-----------|
E|-7------------------7---------------------|

       ↓         ↓         ↓         ↓

Parte 8


   Em7
E|--10-8-10---10-8-10---10-8-10---10-8-10---|
B|-----8---------8---------8---------8------|
G|-----7---------7---------7---------7------|
D|------------------------------------------|
A|-7------------------7---------------------|
E|----------7-------------------7-----------|

       ↓         ↓         ↓         ↓

Primeira Parte:

Parte 1


   Am7
E|---0---3----5--x--3---3-------------------|
B|---1-----------x--1---1-------------------|
G|---0--------5--x------0-------------------|
D|---2-----------x--------------------------|
A|-0---2---x--3--x--------------------------|
E|---------x-----x----3---------------------|

     ↓                  ↓

Parte 2


   D11
E|------------------------------------------|
B|---3---3-3-3----3---3-3-3-----------------|
G|---0---0-0-0----0---0-0-0-----------------|
D|---4---4-4-4----4---4-4-4-----------------|
A|-5---0--------5---0-----------------------|
E|------------------------------------------|

     ↓   ↑ ↓ ↑    ↓   ↑ ↓ ↑

Parte 3


   Bm7
E|------------------------------------------|
B|---3---3-3-3----3---3-3-3-----------------|
G|---0---0-0-0----0---0-0-0-----------------|
D|---4---4-4-4----4---4-4-4-----------------|
A|-2------------2---------------------------|
E|-----2------------2-----------------------|

     ↓   ↑ ↓ ↑    ↓   ↑ ↓ ↑

Parte 4


   Em
E|---0---0-0-0----0---0-0-0-----------------|
B|---0---0-0-0----0---0-0-0-----------------|
G|---0---0-0-0----0---0-0-0-----------------|
D|---2---2-2-2----2---2-2-2-----------------|
A|-----2------------2-----------------------|
E|-0------------0---------------------------|

     ↓   ↑ ↓ ↑    ↓   ↑ ↓ ↑

Final:

Parte 1 (2x)


E|-3-------2---0--------------------------------------|
B|-0-0-0---------0-0---3---1-------0------------------|
G|---0-0---2---0-0-0---------0-0-------2---0----------|
D|---0-0---------0-0---4---2-0-0---0---0---0----------|
A|-----------x-----------x-----------x---x---x--------|
E|-3-----3---x-3-----3---x-3-----3---x-0-x-3-x--------|

     ↑ ↓         ↑ ↓         ↑ ↓       

Parte 2


E|-3-------2---0---------------------------3----------|
B|-0-0-0---------0-0---3---1-------0-------3----------|
G|---0-0---2---0-0-0---------0-0-------2---0----------|
D|---0-0---------0-0---4---2-0-0---0---0---0----------|
A|-----------x-----------x-----------x---x-2----------|
E|-3-----3---x-3-----3---x-3-----3---x-0-x-3----------|

     ↑ ↓         ↑ ↓         ↑ ↓
    Composição: Renato RussoColaboração e revisão:
    • Leo Eymard
    • jabes35
    • o_mensageiro
    • Héliton
    • +4

    Comentários 149

    140 .
    • Douglas Douglas: Em 05/01/2016 00:33

      Muito boa a adaptação, Leo mandou muito bem.

    • claudemir claudemir: Em 18/12/2015 11:43

      não tenho muita pratica com violão mas só vou parar de tentar quando aprende la muito boa show

    • claudemir claudemir: Em 18/12/2015 11:43

      não tenho muita pratica com violão mas só vou parar de tentar quando aprende la muito boa show

    • alex.sousa.kys.oficial alex.sousa.kys.oficial: Em 28/11/2015 20:33

      muito fácil gente é só praticar eu também me assustei quando vi a video-aula mais depois fui tentar e j[a peguei em 2/3 horas!

    • Zeph Zeph: Em 05/10/2015 19:32

      impossivel tocar igual esse cara.... os dedos em cara hora do baixo... n da vei... nem vou tentar vsf

    • Zeph Zeph: Em 05/10/2015 19:27

      se fuder léo eymar kkkkkk

    • felipe_garcia felipe_garcia: Em 23/09/2015 00:09

      O final não é nessa oitava mas já vale muito. Ficou top!!!!!

    • Juan Juan: Em 16/09/2015 20:22

      Sonhar não custa nada néh, enquanto isso vou tentando aqui, só que veio o capiroto da segunda parte -_-'
      Tava facil demais pra ser verda

    • SuperGÊ SuperGÊ: Em 15/04/2015 22:37

      tem sempre um juvenil reclamando!!! ora, pratiquem e a melhora vem junto, é uma videoaula e nao videomágica!!!

    • rita rita: Em 30/03/2015 20:42

      eu ja peguei o solo e super facil

    140 cancelar
    0:00 / 0:00
    3 versões de baixo exibições contribuição e correção
    1 versão de bateria exibições contribuição e correção
    play/pausefechar subir/descer velocidade
    6ª corda E5ª corda A4ª corda D3ª corda G2ª corda B1ª corda E
      acordes
      versão revisada Leo Eymard instrutor de violão
      publicidad
      fechar
      ok