Índios

Legião Urbana

 Legião Urbana Compositor: Renato Russo
Tom: C
		
Introdução:

e|-3---3-3----5--7-----------|
B|-------------------7--5--3-| X3
G|-4--4-4-4---5--7-----------|
D|-------------------7--5--4-|


(tocar durante a música):

B|---1-0-1---1-0-1---1-0-1---1-0-1---3-1-3---3-1-3---3-1-3---3-1-3-|
G|---------------------------------0-------0-------0-------0-------|
D|-3-------3-------3-------3---------------------------------------|



B|---3-1-3---3-1-3---3-1-3---3-1-3---5-3-5---5-3-5---5-3-5---5-3-5-|
G|-0-------0-------0-------0-------2-------2-------2-------2-------|
D|-----------------------------------------------------------------|



B|---6-5-6---6-5-6---6-5-6---6-5-6---6-5-6---6-5-6---6-5-6---6-5-6-|
G|---------------------------------4-------4-------4-------4-------|
D|-7-------7-------7-------7---------------------------------------|



B|---8-7-8---8-7-8---8-7-8---8-7-8---8-6-8---8-6-8---8-6-8---8-6-6-|
G|---------------------------------5-------5-------5-------5-------|
D|-9-------9-------9-------9---------------------------------------|



e|-------------------------------------------7-5-7---7-5-7---7-5-7---7-5-7-|
B|---10-8-10---10-9-10---10-9-10---10-9-10---------------------------------|
G|-7---------7---------7---------7---------7-------7-------7-------7-------|
D|-------------------------------------------------------------------------|



e|-----------------------------------------------8-7-8---8-7-8---8-7-8---8-7-8-|
B|---12-10-12---12-10-12---12-10-12---12-10-12---------------------------------|
G|-9----------9----------9----------9----------9-------9-------9-------9-------|
D|-----------------------------------------------------------------------------|



e|---------------------------------------------|
B|----13-12-13---13-12-13---13-12-13---13-12-13|
G|-10---------10---------10---------10---------|
D|---------------------------------------------|



e|---10-8-10---10-8-10---10-8-10---10-8-10-|
B|-----------------------------------------|
G|10--------10--------10--------10---------|
D|-----------------------------------------|



e|-----------------------------------------------|
B|----15-13-15---15-13-15----15-13-15---15-13-15-|
G|-12---------12---------12----------12----------|
D|-----------------------------------------------|



e|---12-10-12---12-10-12---12-10-12---12-10-12-|
B|10---------10---------10---------10----------|
G|---------------------------------------------|
D|---------------------------------------------|



e|----13-12-13---13-12-13---13-12-13---13-12-13-|
B|-10---------10---------10---------10----------|
G|----------------------------------------------|
D|----------------------------------------------|



e|---13-12-13---13-12-13---13-12-13---13-12-13-|
B|12---------12---------12---------12----------|
G|---------------------------------------------|
D|---------------------------------------------|



e|----15-13-15---15-13-15---15-13-15---15-13-15|
B|-12---------12---------12---------12---------|
G|---------------------------------------------|
D|---------------------------------------------|



e|---15-13-15---15-13-15---15-13-15---15-13-15-|
B|13---------13---------13---------13----------|
G|---------------------------------------------|
D|---------------------------------------------|



e|----17-15-17---17-15-17---17-15-17---17-15-17-|
B|-15---------15---------15---------15----------|
G|----------------------------------------------|
D|----------------------------------------------|



e|---19-17-19---19-17-19---19-17-19---19-17-19|
B|15---------15---------15---------15---------|
G|--------------------------------------------|
D|--------------------------------------------|



e|----19-17-19---19-17-19---19-17-19---19-17-19-|
B|-17---------17---------17---------17----------|
G|----------------------------------------------|
D|----------------------------------------------|



e|---20-19-20---20-19-20---20-19-10---20-19-20---|
B|17---------17---------17---------17---------18-|
G|-----------------------------------------------|
D|-----------------------------------------------|


Dm
Quem me dera, ao menos uma vez,
        G
Ter de volta todo ouro que entreguei
             Em
A quem conseguiu me convencer que era prova de amizade
   Am
Se alguém levasse embora até o que eu não tinha
Dm
Quem me dera, ao menos uma vez,
      G                                  F
Esquecer que acreditei que era por brincadeira
     Em
Que se cortava sempre um pano-de-chão
    Am
De linho nobre e pura seda.
Dm
Quem me dera, ao menos uma vez,
      G                             F
Explicar o que ninguém consegue entender:
            Em                                Am
Que o que aconteceu ainda está por vir e o futuro não é mais como era antigamente.
Dm
Quem me dera, ao menos uma vez,
    G
Provar que quem tem mais do que precisa ter
       Em
Quase sempre se convence que não tem o bastante
   Am
E fala demais por não ter nada a dizer
Dm
Quem me dera, ao menos uma vez,
            G                                    F
Que o mais simples fosse visto como o mais importante,
Em
Mas nos deram espelhos
   Am
E vimos um mundo doente.
Dm
Quem me dera, ao menos uma vez,
      G                                     F
Entender como um só Deus ao mesmo tempo é três
        Em
E esse mesmo Deus foi morto por vocês
         Am
É só maldade então, deixar um Deus tão triste

Refrão:
 F
Eu quis o perigo e até sangrei sozinho
    C
Entenda, assim pude trazer você de volta pra mim,
        F
Quando descobri que é sempre só você
                    C
Que me entende do início ao fim
                       F
E é só você que tem a cura para o meu vício de insistir nessa saudade que eu sinto
             C                F
De tudo que eu ainda não vi...
 
  solo:

B|---1-0-1---1-0-1---1-0-1---1-0-1---3-1-3---3-1-3---3-1-3---3-1-3-|
G|---------------------------------0-------0-------0-------0-------|
D|-3-------3-------3-------3---------------------------------------|



B|---3-1-3---3-1-3---3-1-3---3-1-3---5-3-5---5-3-5---5-3-5---5-3-5-|
G|-0-------0-------0-------0-------2-------2-------2-------2-------|
D|-----------------------------------------------------------------|



B|---6-5-6---6-5-6---6-5-6---6-5-6---6-5-6---6-5-6---6-5-6---6-5-6-|
G|---------------------------------4-------4-------4-------4-------|
D|-7-------7-------7-------7---------------------------------------|



B|---8-7-8---8-7-8---8-7-8---8-7-8---8-6-8---8-6-8---8-6-8---8-6-6-|
G|---------------------------------5-------5-------5-------5-------|
D|-9-------9-------9-------9---------------------------------------|



e|-------------------------------------------7-5-7---7-5-7---7-5-7---7-5-7-|
B|---10-8-10---10-9-10---10-9-10---10-9-10---------------------------------|
G|-7---------7---------7---------7---------7-------7-------7-------7-------|
D|-------------------------------------------------------------------------|



e|-----------------------------------------------8-7-8---8-7-8---8-7-8---8-7-8--|
B|---12-10-12---12-10-12---12-10-12---12-10-12----------------------------------|
G|-9----------9----------9----------9----------9-------9-------9-------9------10|
D|------------------------------------------------------------------------------|


Dm
Quem me dera, ao menos uma vez,
     G
Acreditar por um instante em tudo que existe
    Em
E acreditar que o mundo é perfeito
       Am
E que todas as pessoas são felizes
Dm
Quem me dera, ao menos uma vez,
   G
Fazer com que o mundo saiba que seu nome
 Em
Está em tudo  e mesmo assim
    Am
Ninguém lhe diz ao menos obrigado.
Dm
Quem me dera, ao menos uma vez,
 G                      Em
Como a mais bela tribo, dos mais belos índios,
     Am
Não ser atacado por ser inocente.

Refrão

F
Nos deram espelhos e vimos um mundo doente
C                                         
Tentei chorar e não consegui.                    Acaba assim

   Am7       Dm    G   Dm    C   G       C            C
e|----8---7-----5--------------------------|     |----0----|
B|-----8--8--6--6--8---6--6--5---0-3---0-5-|     |----5----|
G|-----------7---------7--7----------0-----|5x   |----5----|
D|-7----7----------9---7-----5-----5-----5-|     |----5----|
A|-----------------------------------------|     |---------|
E|-----------------------------------------|     |---------|


Ta tudo coreto, esses solos não fui eu que coloquei então não sei se esta certo mas a musica e 
as notas ta tudo ok ;)
Texto Colunas
Alterar tom ½ tom ½ tom
afinação acordes na letra esconder tabs mais »

Comentários 2

  • brunoslash619 brunoslash619: Postado em 21/04/2011 19:46

    show de bola !

  • csumax20 csumax20: Postado em 14/02/2011 18:50

    Os solos durante a música estão todos errados! O inicio é o que está mais longe do ideal!!

Composição: Renato Russo
Esse não é o compositor? Avise-nos.
Contribuição: Eric Correções: lipefarias , RangeLang e mais 3 »
  1. Domingo de Manhã - Marcos e Belutti Manteve-se 97.773 exibições
  2. Logo Eu - Jorge e Mateus Manteve-se 48.368 exibições
  3. Pra Você - Onze:20 Manteve-se 37.461 exibições
  4. Maus Bocados - Cristiano Araújo Manteve-se 36.706 exibições
  5. Não Vai Voltar - Onze:20 Manteve-se 36.448 exibições
  6. Recaídas - Henrique e Juliano Manteve-se 36.224 exibições
  7. Aonde Quer Que Eu Vá - Os Paralamas do Sucesso Manteve-se 35.210 exibições
  8. É Preciso Saber Viver - Titãs Manteve-se 32.774 exibições
  9. Só Os Loucos Sabem - Charlie Brown Jr. Manteve-se 32.470 exibições
  10. Pais e Filhos - Legião Urbana Manteve-se 30.493 exibições
  1. Jorge e Mateus- Manteve-se 280.647 exibições
  2. Legião Urbana- Manteve-se 216.683 exibições
  3. Charlie Brown Jr.- Manteve-se 156.154 exibições
  4. Fernandinho- Manteve-se 124.823 exibições
  5. Marcos e Belutti- Manteve-se 120.573 exibições
  6. Henrique e Juliano- Manteve-se 116.667 exibições
  7. Bruno e Marrone- Manteve-se 106.899 exibições
  8. Victor e Leo- Manteve-se 100.187 exibições
  9. Onze:20- Manteve-se 96.303 exibições
  10. Thalles Roberto- Manteve-se 93.316 exibições
Exibir acordes »

Cifras e tabs

Fórum Cifra Club

Aprenda

Cifra Club News

Mais Serviços Cifra Club ID

Studio Sol

©1996 - 2014 Cifra Club · o primeiro, maior e mais acessado do Brasil · 336 mil músicas · 6.2 milhões pessoas cadastradas

publicidade
fechar