Música De Trabalho

Legião Urbana

 Legião Urbana
Tom: D
		
Intr.: B  A

Baixo:

e|------------------------------------|
B|------------------------------------|
G|------------------------------------|  
D|------------------------------------|
A|-2-2-0-----------5-5-5--------------|
E|-------2-0--0--0--------------------|


Guitarra:


e|------------------------|
B|------------------------|
G|------------------------| 
D|------------------------|
A|-5b--7-5----------------|
E|---------7--5--7-5-5-7--|



   Bm                         E     D
e|----------------------|------------------|
B|----------------------|------------------|
G|----------------------|------------------|  
D|----------------------|-----------4------|
A|-5b--7-5--------------|-5b--7-7-7---5----|
E|---------7--5--7-5-5-7|---------------7--|

tocar durante a música com 
algumas variações

	Bm
Sem trabalho eu não sou nada
Não tenho dignidade
          E		    D
Não sinto o meu valor
	Bm
Não tenho identidade
Mas o que eu tenho 
É só um emprego
E um salário miserável
        E		  D
Eu tenho o meu ofício
	  Bm
Que me cansa de verdade
      E5	D5	Bm      
Tem gente que não tem nada
	  E5		  D5	   Bm
E outros que tem mais do que precisam
	E5	    D5	Bm		A5 
Tem gente que não quer saber de trabalhar
	     D		      Em
Mas quando chega o fim do dia
	A           D4 D
Eu só penso em descansar
	Bm	 Em  	     C      A   
E voltar p'rá casa pros teus braços
	D		  Em
Quem sabe esquecer um pouco
A		   D
De todo o meu cansaço
	Bm	  Em   
Nossa vida não é boa
	   C	      A
E nem podemos reclamar

[ Introdução ]

	Bm
Sei que existe injustiça
Eu sei o que acontece
Tenho medo da polícia
Eu sei o que acontece
     G 	            F#
Se você não segue as ordens       
       Bm
Se você não obedece
	   G	      E7
E não suporta o sofrimento      

D|-9-7--9-7--9-7-...----|
A|----------------------|
E|----------------------|

	  Bm
Está destinado a miséria

        G	   F#	     
Mas isso eu não aceito
      Bm
Eu sei o que acontece
      G		   E7   
Mas isso eu não aceito
      Bm
Eu sei o que acontece
	    D		Em
E quando chega o fim do dia
	 A          D4 D      
Eu só penso em descansar
        Bm	Em	     C       A	
E voltar p'rá casa pros teus braços
	D		   Em
Quem sabe esquecer um pouco
       A		  D4 D 
Do pouco que não temos
	Bm		Em
Quem sabe esquecer um pouco
       C		     A
De tudo que não sabemos
(D  Em  A  D  Bm  Em  C  A)  


 
59.062 exibições

Comentários 1

  • alanmiguel1988 alanmiguel1988: Postado em 15/07/2012 19:39

    Música tão atual que, pensando bem, poderia se aplicar pra alguns certos setores da nossa sociedade......

Composição: Dado Villa-Lobos / Renato Russo / Marcelo Bonfá
Esse não é o compositor? Avise-nos.
Exibir acordes »
publicidade
fechar