Química

Legião Urbana

 Legião Urbana
Tom: D
		
Intro: E

       E5                 D5       C#5
Estou trancado em casa e não posso sair
   E5            D5          C#5
Papai já disse, tenho que passar
    E5             D5          C#5
Nem música eu não posso mais ouvir
     E5           D5           C#5
E assim não posso nem me concentrar

C#m5         (B5) A5
Não saco nada de Física
C#m5       (B5)   A5
Literatura ou Gramática
 D5               G5         C5
Só gosto de Educação Sexual
             B5
E eu odeio Química

(Intro)

     E5           D5         C#5
Não posso nem tentar me divertir
  E5            D5           C#5
O tempo inteiro eu tenho que estudar
     E5          D5          C#5
Fico só pensando se vou conseguir
    E5          D5        C#5
Passar na porra do vestibular

C#m5         (B5) A5
Não saco nada de Física
C#m5       (B5)   A5
Literatura ou Gramática
 D5               G5          C5
Só gosto de Educação Sexual
             B5      A5      G5    F#5 B5
E eu odeio Química, Química, Química

    E5                     D
Chegou a nova leva de aprendizes
   A5                  G5
Chegou a vez do nosso ritual
  E5                        D
E se você quiser entrar na tribo
 A5                     G5
Aqui no nosso Belsen tropical

     E5           D            A5            G5
Ter carro do ano, TV a cores, pagar imposto, ter pistolão
     E5              D                 A5             G5
Ter filho na escola, férias na Europa, conta bancária, comprar feijão
     E5          D              A5              G5
Ser responsável, cristão convicto, cidadão modelo, burguês padrão

      E5                      D
Você tem que passar no vestibular
    A5                        G5
Você tem que passar no vestibular

{Refrão}


Solo: E5  D5  C#5 
E|---------------------12----------------------------------------12-----|
B|---------------------12--------------12-10---------------------12-----|
G|-/9--12--9--12-12--9h12-9h12-12-9-12-------12-9-12-9----9~--/9h12-9-9-|
D|-----------------------------------------------------12---------------|
A|----------------------------------------------------------------------|
E|----------------------------------------------------------------------|



E|-------------------------------|
B|--------------10-12-10---------|
G|----9------12----------12-9-12-|
D|-12---12-9---------------------|
A|-------------------------------|
E|-------------------------------|


(Refrão)
144.537 exibições

Comentários 3

  • Cleber Cleber: Postado em 01/06/2014 17:30

    Faça a sequencia assim:
    E5....................X-7-9-9-X-X ou 0-7-9-X-X-X
    E5/D...............10-7-9-X-X-X
    A5/C#...............9-7-7-X-X-X
    G5.

  • rickbond rickbond: Postado em 05/12/2011 11:02

    legal

  • Pedro Seixas Pedro Seixas: Postado em 20/10/2011 09:27

    Refiz a tablatura do solo, que estava errada ..
    PS: Ouvi a versão de estúdio ..

Composição: Renato Russo
Esse não é o compositor? Avise-nos.
Contribuição: Tijolo Elétrico Correções: André e mais 1 »
Exibir acordes »
publicidade
fechar