Tempo Perdido

Legião Urbana

 Legião Urbana
Tom: G
		
Intro: C  Am7 Bm  Em

Intro:

C
E|----------------------------
B|-----12----12-----12-----12-
G|---12----12-----12-----12---
D|-10----10-----10-----10-----
A|----------------------------
E|----------------------------



Am7
E|----------------------------
B|---8---8---8---8------------
G|--9---9---9---9-------------
D|-7---7---7---7--------------
A|----------------------------
E|----------------------------



Bm
E|----------------------------
B|----10----10----10----10----
G|--11----11----11----11------
D|-9-----9-----9-----9--------
A|----------------------------
E|----------------------------


Em

E|----------------------------
B|----------------------------
G|---9--9---9---7-------------
D|--9--9----------------------
A|-7------7---5---------------
E|----------------------------


Parte 1:


C
E|----------------------------
B|------------0---0-----------
G|---5--5-5-5---5-------------
D|----------------------------
A|-3--------------------------
E|----------------------------



Am7
E|----------------------------
B|-------1--------------3---1-
G|-----0----0-----------------
D|-0h2--------2---2/4-4---2---
A|----------------------------
E|----------------------------



Bm
E|----------------------------
B|---------0-----3-----1------
G|------2----2-----2-----2----
D|----0--------0-----0-----0--
A|-2--------------------------
E|----------------------------


Em

E|----------------------------
B|-------0--------------------
G|---------0------------------
D|----0------0----------------
A|----------------------------
E|-0--------------------------




Parte 2 inicio do Vocal:

Em

E|-2-----3---------------------
B|---0-------------------------
G|-----0---0-------------------
D|-----------------------------
A|-----------------------------
E|-----------------------------



C
E|-----------------------------
B|------------0---0------------
G|---5--5-5-5---5--------------
D|-----------------------------
A|-3---------------------------
E|-----------------------------



Am7
E|----------------------------
B|-------1--------------3---1-
G|-----0----0-----------------
D|-0h2--------2---2/4-4---2---
A|----------------------------
E|----------------------------



Bm
E|----------------------------
B|---------0-----3-----1------
G|------2----2-----2-----2----
D|----0--------0-----0-----0--
A|-2--------------------------
E|----------------------------


Em

E|----------------------------
B|-------0--------------------
G|---------0------------------
D|----0------0----------------
A|----------------------------
E|-0--------------------------


Variação da Parte 2:

Em

E|-2-----3---------------------
B|---0-------------------------
G|-----0---0-------------------
D|-----------------------------
A|-----------------------------
E|-----------------------------



C
E|-----------------------------
B|------------0---0------------
G|---5--5-5-5---5--------------
D|-----------------------------
A|-3---------------------------
E|-----------------------------



Am7
E|----------------------------
B|-------1--------------3---1-
G|-----0----0-----------------
D|-0h2--------2---2/4-4---2---
A|----------------------------
E|----------------------------


Parte 3:
(Essa é a parte que o vocalista diz:Selvagem...Selvagem...Selvagem.../ ela é repetida duas vezes)


Bm
E|-----------------------------
B|---0--3-----3-----3-----3----
G|--------4-----4-----4-----4--
D|-4--------4-----4-----4------
A|-----------------------------
E|-----------------------------


Em

E|-B0-C0-B0-C0-B0-C0-B0-B0-C0-B0-C0-B0-C0-B0--
B|-A0-I0-A0-I0-A0-I0-A0-A0-I0-A0-I0-A0-I0-A0--
G|-I0-M0-I0-M0-I0-M0-I0-I0-M0-I0-M0-I0-M0-I0--
D|-X2-A2-X2-A2-X2-A2-X2-X2-A2-X2-A2-X2-A2-X2--
A|-O2--2-O2--2-O2--2-O2-O2--2-O2--2-O2--2-O2--
E|--0--0--0--0--0--0--0--0--0--0--0--0--0--0--


Solo 1:


Em   D
E|-12---------------------------
B|-12------7--------------------
G|-12----7---7------------------ (4X)
D|-----7------------------------
A|------------------------------
E|------------------------------



D
E|------------------------------
B|-7----------------------------
G|-7----------------------------
D|-7----------------------------
A|------------------------------
E|------------------------------


Parte 4:


C
E|-----------------------------
B|------------0---0------------
G|---5--5-5-5---5--------------
D|-----------------------------
A|-3---------------------------
E|-----------------------------



Am7
E|----------------------------
B|-------1--------------3---1-
G|-----0----0-----------------
D|-0h2--------2---2/4-4---2---
A|----------------------------
E|----------------------------



Bm
E|----------------------------
B|---------0-----3-----1------
G|------2----2-----2-----2----
D|----0--------0-----0-----0--
A|-2--------------------------
E|----------------------------


Em

E|-------------2-----3--------
B|-------0-------0------------
G|---------0-------0---0------
D|----0------0----------------
A|----------------------------
E|-0--------------------------

          Essa parte é repetida três vezes, dai vem essa:

C
E|-----------------------------
B|------------0---0------------
G|---5--5-5-5---5--------------
D|-----------------------------
A|-3---------------------------
E|-----------------------------



Am7
E|----------------------------
B|-------1--------------3---1-
G|-----0----0-----------------
D|-0h2--------2---2/4-4---2---
A|----------------------------
E|----------------------------



Bm
E|-----------------------------
B|---0--3-----3-----3-----3----
G|--------4-----4-----4-----4--
D|-4--------4-----4-----4------
A|-----------------------------
E|-----------------------------


Em

E|-B0-C0-B0-C0-B0-C0-B0-B0-C0-B0-C0-B0-C0-B0--
B|-A0-I0-A0-I0-A0-I0-A0-A0-I0-A0-I0-A0-I0-A0--
G|-I0-M0-I0-M0-I0-M0-I0-I0-M0-I0-M0-I0-M0-I0--
D|-X2-A2-X2-A2-X2-A2-X2-X2-A2-X2-A2-X2-A2-X2--
A|-O2--2-O2--2-O2--2-O2-O2--2-O2--2-O2--2-O2--
E|--0--0--0--0--0--0--0--0--0--0--0--0--0--0--



Bm
E|-----------------------------
B|---0--3-----3-----3-----3----
G|--------4-----4-----4-----4--
D|-4--------4-----4-----4------
A|-----------------------------
E|-----------------------------


Em

E|-B0-C0-B0-C0-B0-C0-B0-B0-C0-B0-C0-B0-C0-B0--
B|-A0-I0-A0-I0-A0-I0-A0-A0-I0-A0-I0-A0-I0-A0--
G|-I0-M0-I0-M0-I0-M0-I0-I0-M0-I0-M0-I0-M0-I0--
D|-X2-A2-X2-A2-X2-A2-X2-X2-A2-X2-A2-X2-A2-X2--
A|-O2--2-O2--2-O2--2-O2-O2--2-O2--2-O2--2-O2--
E|--0--0--0--0--0--0--0--0--0--0--0--0--0--0--



Bm
E|-----------------------------
B|---0--3-----3-----3-----3----
G|--------4-----4-----4-----4--
D|-4--------4-----4-----4------
A|-----------------------------
E|-----------------------------


Em

E|-B0-C0-B0-C0-B0-C0-B0-B0-C0-B0-C0-B0-C0-B0--
B|-A0-I0-A0-I0-A0-I0-A0-A0-I0-A0-I0-A0-I0-A0--
G|-I0-M0-I0-M0-I0-M0-I0-I0-M0-I0-M0-I0-M0-I0--
D|-X2-A2-X2-A2-X2-A2-X2-X2-A2-X2-A2-X2-A2-X2--
A|-O2--2-O2--2-O2--2-O2-O2--2-O2--2-O2--2-O2--
E|--0--0--0--0--0--0--0--0--0--0--0--0--0--0--


Parte 5:
É uma variação da parte 4.


C
E|-----------------------------
B|------------0---0------------
G|---5--5-5-5---5--------------
D|-----------------------------
A|-3---------------------------
E|-----------------------------



Am7
E|----------------------------
B|-------1--------------3---1-
G|-----0----0-----------------
D|-0h2--------2---2/4-4---2---
A|----------------------------
E|----------------------------



Bm
E|----------------------------
B|---------0-----3-----1------
G|------2----2-----2-----2----
D|----0--------0-----0-----0--
A|-2--------------------------
E|----------------------------


Em

E|-------------2-----3--------
B|-------0-------0------------
G|---------0-------0---0------
D|----0------0----------------
A|----------------------------
E|-0--------------------------

          Essa parte é repetida três vezes, dai vem essa:

C
E|-----------------------------
B|------------0---0------------
G|---5--5-5-5---5--------------
D|-----------------------------
A|-3---------------------------
E|-----------------------------



Am7
E|----------------------------
B|-------1--------------3---1-
G|-----0----0-----------------
D|-0h2--------2---2/4-4---2---
A|----------------------------
E|----------------------------



Bm
E|-----------------------------
B|---0--3-----3-----3-----3----
G|--------4-----4-----4-----4--
D|-4--------4-----4-----4------
A|-----------------------------
E|-----------------------------


Em

E|-B0-C0-B0-C0-B0-C0-B0-B0-C0-B0-C0-B0-C0-B0--
B|-A0-I0-A0-I0-A0-I0-A0-A0-I0-A0-I0-A0-I0-A0--
G|-I0-M0-I0-M0-I0-M0-I0-I0-M0-I0-M0-I0-M0-I0--
D|-X2-A2-X2-A2-X2-A2-X2-X2-A2-X2-A2-X2-A2-X2--
A|-O2--2-O2--2-O2--2-O2-O2--2-O2--2-O2--2-O2--
E|--0--0--0--0--0--0--0--0--0--0--0--0--0--0--



Bm
E|-----------------------------
B|---0--3-----3-----3-----3----
G|--------4-----4-----4-----4--
D|-4--------4-----4-----4------
A|-----------------------------
E|-----------------------------


Em

E|-B0-C0-B0-C0-B0-C0-B0-B0-C0-B0-C0-B0-C0-B0--
B|-A0-I0-A0-I0-A0-I0-A0-A0-I0-A0-I0-A0-I0-A0--
G|-I0-M0-I0-M0-I0-M0-I0-I0-M0-I0-M0-I0-M0-I0--
D|-X2-A2-X2-A2-X2-A2-X2-X2-A2-X2-A2-X2-A2-X2--
A|-O2--2-O2--2-O2--2-O2-O2--2-O2--2-O2--2-O2--
E|--0--0--0--0--0--0--0--0--0--0--0--0--0--0--


Solo 2 (No final):


Em    D
E|-12---------------------------
B|-12-------7-------------------
G|-12-----7---7----------------- (4X)
D|------7-----------------------
A|------------------------------
E|------------------------------



   D
E|------------------------------
B|---7--7-----------------------
G|-7------7----7----------------
D|-----------7-----7------------
A|---------------7---7----------
E|------------------------------
Texto Colunas
Alterar tom ½ tom ½ tom
afinação acordes na letra esconder tabs mais »

Comentários (5)

  • Lucas Lucas: Postado em 02/01/2014 21:45

    essa cioisa escrita ai e o ritimo gente presta atençao ta escrito baixo cima ;)

  • rafael.grubel.9 rafael.grubel.9: Postado em 18/09/2013 20:30

    lag no cerebujsleufhnasKUVyougLOgYOHolihliUGOgOgogYOYgloGOgoglglglLGlgLLlLgGLhlGLGlLGgLGlgLGgGlvgXfdX785657658765&*6dsfvkbdfilhndvfnxzicvhlu

  • danielbelmiro danielbelmiro: Postado em 03/09/2013 15:20

    Que bagulho é esse de C0-B0-C0-B0-C0-B0-B0-C0-B0-C0-B0-C0-B0?

  • douglasb13 douglasb13: Postado em 29/12/2012 13:31

    Entendi não =(
    Pooxa, sempre proucuro video aula do solo completo da musica nunca acho , quebra essa ai cifra club ;)

  • saviocutalo saviocutalo: Postado em 15/07/2012 19:01

    video aula bitch please

Composição: Renato Russo
Esse não é o compositor? Avise-nos.
Contribuição: matheust3
  1. Tudo Que Você Quiser - Luan Santana Manteve-se 4.902 exibições
  2. Lepo Lepo - Psirico Manteve-se 3.570 exibições
  3. Mozão - Lucas Lucco Manteve-se 3.423 exibições
  4. Logo Eu - Jorge e Mateus Manteve-se 3.029 exibições
  5. Gaveta - Fernando e Sorocaba Manteve-se 2.722 exibições
  6. Só Os Loucos Sabem - Charlie Brown Jr. Manteve-se 2.470 exibições
  7. Pra Você - Onze:20 Manteve-se 2.088 exibições
  8. Tempo Perdido - Legião Urbana Manteve-se 1.989 exibições
  9. Fui Fiel - Gusttavo Lima Manteve-se 1.760 exibições
  10. Na Linha do Tempo - Victor e Leo Manteve-se 1.759 exibições
  1. Jorge e Mateus- Manteve-se 18.170 exibições
  2. Legião Urbana- Manteve-se 16.306 exibições
  3. Luan Santana- Manteve-se 14.644 exibições
  4. Charlie Brown Jr.- Manteve-se 14.217 exibições
  5. Fernandinho- Manteve-se 12.391 exibições
  6. Thalles Roberto- Manteve-se 9.162 exibições
  7. Aline Barros- Manteve-se 9.064 exibições
  8. Católicas- Manteve-se 8.769 exibições
  9. Victor e Leo- Manteve-se 8.687 exibições
  10. Bruno e Marrone- Manteve-se 8.333 exibições
Exibir acordes »

Cifras e tabs

Fórum Cifra Club

Aprenda

Cifra Club News

Mais Serviços Cifra Club ID

Studio Sol

©1996 - 2014 Cifra Club · o primeiro, maior e mais acessado do Brasil · 329 mil músicas · 5.9 milhões pessoas cadastradas

publicidade
fechar