O Lá Em Casa

Léo e Junior

 Léo e Junior
Tom: C
		
Intro: C G Am F
                                          (2x)

E|-12--15-13-12-------------------------------|--15-13-12-----------------|
B|--------------13----13----13----13----13----|--------------13-----------|
G|-----------------14----14----14----14----12-|-----------------14--12-12-|
D|--------------------------------------------|---------------------------|
A|--------------------------------------------|---------------------------|
E|--------------------------------------------|---------------------------|


C   G         Am
Ô, ô lá em casa!
            F                    C
E é nesse jeito que a gente se ama
G            Am
Ô lá em casa!
               F                C
No sofá, na sala, em cima da cama (2x)

Intro: C G Am F
                                          (2x)

E|-12--15-13-12-------------------------------|--15-13-12-----------------|
B|--------------13----13----13----13----13----|--------------13-----------|
G|-----------------14----14----14----14----12-|-----------------14--12-12-|
D|--------------------------------------------|---------------------------|
A|--------------------------------------------|---------------------------|
E|--------------------------------------------|---------------------------|


C                        G                  Am   F
Eu te avisei: cuidado comigo que eu sou um perigo
          C    G   Am  F
E você duvidou

C                          G               Am        F
Não brinca com quem não conhece porque eu sou mestre
          C   F   G
Na arte do amor
          C         F             G
Agora eu vou te fazer sentir prazer com meu amor
          C      F         G
Vou te deixar louquinha de paixão
         C     F          G
Enlouquecer, fazer você perder sua noção
         C      F          G
Eu te avisei, joguei, ganhei seu coração
143.107 exibições

Comentários 3

  • mamadlgalo mamadlgalo: Postado em 30/12/2011 19:11

    essa musica é muito legal

  • elvis13 elvis13: Postado em 03/05/2011 08:08

    muito show essa musica

  • jo.lindinha jo.lindinha: Postado em 14/03/2011 19:01

    adorei essa musica ô lá em casa

Composição: Sabe quem é o compositor? Envie pra gente. Contribuição: Depizzol Correções: careca133 e mais 1 »
Exibir acordes »
publicidade
fechar