Tom: D
		
Intro 2x: D9  G5


      D9                        G5
E|-------0-----0-----0-------------------0---|
B|-----3-----3-----3---3------------3--------|
G|---2-----2-----2-------2--------0----------|
D|-0----------------------------0-----0------|
A|-------------------------------------------|
E|---------------------------3---------------|



      D9                        G5
E|-------0-----0-----0---------------------0-|
B|-----3-----3-----3---3------------3--------|
G|---2-----2-----2-------2--------0----------|
D|-0----------------------------0------------|
A|-------------------------------------------|
E|---------------------------3---------------|


(1ª Parte)


      D9      D        D4/G
E|-------0-0h2-------------------------|
B|-----3------------------------0h3----|
G|---2-------------------2-2h4---------|
D|-0-------------------0---------------|
A|-------------------------------------|
E|------------------3------------------|



      D9      D        D4/G      A4          B9     Bm    A4      A
E|-------0-0h2—3p2---------------------------------------------------|
B|-----3---------------------------2h3---------2-2h3---------3-3p2---|
G|---2-------------------2-------2-----------4-------------2---------|
D|-0-------------------0-------2-----------4-------------2-----------|
A|---------------------------0-----------2-------------0-------------|
E|------------------3------------------------------------------------|



      D4/G
E|------------------------------------|
B|------------------------------------|
G|-----2-----2-----2----------2---2h3-|
D|---0-----0-----0---0------0---0-----|
A|------------------------------------|
E|-3-----3-----3-------3--3-----------|


D9  D          D4/G
     Hoje é domingo de manhã
D9  D        D4/G    A4
     Hoje o sol não quer brilhar
B9  Bm             A4  A
     Tudo é solidão
       D4/G
E ela vêm dizer, de madrugada ressurgir

D9  D         D4/G
     Não acredito em ilusões
D9  D             D4/G    A4
     O sol da justiça se apagou
B9  Bm                  A4  A
     O mundo inteiro viu

    G9                        D/F#
Os cravos em Suas mãos, o Seu corpo a sofrer,
    Em7                    D/F#
Sua morte lá na cruz não consigo entender
              G                D/F#
E agora esse túmulo vazio, este anjo a questionar:
          Em7                              A4  A
Porque procuram entre os mortos quem vivo está

  D9         A/D  G   D9     A/D  G
E hoje eu sou livre, pois Ele vive
     Bm        F#       G       C9
Ele vive, Ele reina em mim, em mim!
D9      A/D  G  D9     A/D  G
Morte e pecado foi derrotado
         Bm            F#        G     Gm6
E eu sou livre! Eu sou livre em fim de mim

D9  D           G
     Quando Jesus ressuscitou
D9  D           G    A4
     Da morte eterna para a luz
B9  Bm             A4  A            G      D/F#
     Da água renasci      e faz sentido servir
         Em7       A4  A
Alguém melhor que eu

 D9         A/D  G   D9     A/D  G
E hoje eu sou livre, pois Ele vive
     Bm        F#       G
Ele vive, Ele reina em mim!
(sobe de tom)                                                                                                                     C9                                                    G9
E os que descansam no Senhor, quando voltar despertarão
                C9                         A/B
E em sua carne enfim verão a Deus

  E9         B/E  A   E9     B/E  A
E hoje eu sou livre, pois Ele vive
    C#m        G#       A       D9
Ele vive, Ele reina em mim, em mim!
E9      B/E  A  E9     B/E  A
Morte e pecado foi derrotado
         C#m            G#        A     Am6
E eu sou livre! Eu sou livre em fim de mim

         E9               A9 (B)       E           A9 (B)     E9
Final: - Todos os dias de manhã, quero renascer
Texto Colunas
Alterar tom ½ tom ½ tom
afinação acordes na letra esconder tabs mais »
222.235 exibições

Comentários (2)

  • bill_dumb bill_dumb: Postado em 26/11/2011 11:44

    Linda música e muito bem feita a cifra, parabéns para quem a enviou e a transcreveu, pois ela ficou perfeita!

Composição: Sabe quem é o compositor? Envie pra gente. Contribuição: Zordenoni Correções: wagnergato , aleexsiilva e mais 4 »
  1. Tudo Que Você Quiser - Luan Santana Manteve-se 6.028 exibições
  2. Lepo Lepo - Psirico Manteve-se 4.297 exibições
  3. Pra Você - Onze:20 Manteve-se 4.147 exibições
  4. Mozão - Lucas Lucco Manteve-se 4.130 exibições
  5. Logo Eu - Jorge e Mateus Manteve-se 3.983 exibições
  6. Gaveta - Fernando e Sorocaba Manteve-se 3.779 exibições
  7. Só Os Loucos Sabem - Charlie Brown Jr. Manteve-se 3.131 exibições
  8. Tempo Perdido - Legião Urbana Manteve-se 2.706 exibições
  9. Fui Fiel - Gusttavo Lima Manteve-se 2.673 exibições
  10. Domingo de Manha - Marcos e Belutti Manteve-se 2.465 exibições
  1. Jorge e Mateus- Manteve-se 23.782 exibições
  2. Legião Urbana- Manteve-se 21.512 exibições
  3. Charlie Brown Jr.- Manteve-se 17.212 exibições
  4. Luan Santana- Manteve-se 17.149 exibições
  5. Fernandinho- Manteve-se 15.105 exibições
  6. Thalles Roberto- Manteve-se 11.065 exibições
  7. Católicas- Manteve-se 10.946 exibições
  8. Gusttavo Lima- Manteve-se 10.939 exibições
  9. Victor e Leo- Manteve-se 10.661 exibições
  10. Bruno e Marrone- Manteve-se 10.324 exibições
Exibir acordes »

Cifras e tabs

Fórum Cifra Club

Aprenda

Cifra Club News

Mais Serviços Cifra Club ID

Studio Sol

©1996 - 2014 Cifra Club · o primeiro, maior e mais acessado do Brasil · 329 mil músicas · 6.0 milhões pessoas cadastradas

publicidade
fechar